Çevrimiçi Yerli Akorcu :)


Anket
Yerli Akor Sakinleri Hangi Burçtan ?
Koç
Boğa
İkizler
Yengeç
Aslan
Başak
Terazi
Akrep
Yay
Oğlak
Kova
Balık
SANATÇILAR..
Popüler Konular
Seçmece Akorlar
Kategori: Manga
Manga Gitar Tabları
Manga Gitar Tabları
Türk Pop Rock Grubu Manga tarzlarından ötürü batı müziğinde nü-metal gruplarından Linkin Park'a olan benzerlikleri ile karşımıza çıkıyor. Başarılı grubun şarkılarında Rap müzik olan bütünlüğünden ötürü Ritim bütünlüğü kurulamadığı aşikar. grubun parçalarını ritim ile çalmak istiyor isek akustik düzenlemelerini dinlememiz gerekmektedir. Arkadaşlar sayfamızda siz manga severleri için şarkıların Tablarını Hazırladık. Lütfen Şarkıya çalmaya başlamadan önce nerenin solosundan tab okuma başlıyor iseniz önce şarkıyı tamamıyla dinleyelim ondan sonra verilen tablara göre intro , giriş yada ara solo tablarını okuyarak çalmaya çalışalım .. iyi çalışmalar..



===================================================================================================================


 
Manga - Alışırım gözlerimi kapamaya


E--5-5-3-5-3-5-6-5-3-1-3-1-0---5-5-3-5-3-5-8-5-3-1-3-1-0----------
B-----------------------------------------------------------------
G-----------------------------------------------------------------
E---0-1-3-1-3--3-3-5-1-0-1--------0-1-3-1-3--3-3-5-1-0-1--3-------
B-3-----------------------------3---------------------------------
G-----------------------------------------------------------------


===================================================================================================================


 
Manga - Bir Kadın çizeceksin

giriş 2x
e -------------------|----------------------|-------------------|----------------------|-------------|
b-0--7---5-7-5-|---0-7---5-7-5-|--0--8---7-8-7-|--0--8---7-8-7-8-10----|
g-------------------|----------------------|-------------------|----------------------|-------------||
d-------------------|----------------------|-------------------|----------------------|-------------||
a-------------------|----------------------|------------------|-------------------|-------------||
e------------------|------------------|-------------------|---------------------|--
giriş 2. kısım
e-------------------|----------------------|-------------------|----------------------|-------------||
b-0--7---5-7-5----2-3-5---3-3-2-0-3-0---|---0---7---5-7-5--2-3-5---10-10-8-7--|
g-------------------|----------------------|-------------------|----------------------|-------------||
d-------------------|----------------------|-------------------|----------------------|-------------||
a-------------------|----------------------|------------------|-------------------|-------------||
e------------------|------------------|-------------------|---------------------|--


===================================================================================================================


 
Manga - Cevapsız sorular



E|-------0-----------|------0-----------|
B|--4-----4-4-----4--|-4-----4-4----4---|
G|----6----6-----6-6-|---6----6----6-6--|
D|-----6-------------|----6-------------|
A|-------------0-----|-----------0------|
E|-------------------|------------------|
E|-------0----------0----------0---------0----|
B|--4-----4-4-----4--4-4-----4--4-4----4--0---|
G|----6----6-----6-6--6-----6-6--6----6-6--4--|
D|-----6------------------------------------6-|
A|-------------0-----------0---------0--------|
E|--------------------------------------------|


Söz Bölümü
E|--------------------| |-----------------------------------------|
B|------0--------0----| |-------0--------0---------0--------4-5---|
G|----6--6-----6--6-6-|2x |-----6--6-----6--6-6----6--6-----6--6-6--|
D|---6-6--6---6-6--6--| |----6-6--6---6-6--6----6-6--6---6-6------|
A|--4-------4---------| |---0-------0----------0-------0----------|
E|--------------------| |-----------------------------------------|


Ne sen baktın ardına ne ben Hep ayrı yollarda yürüdük
E|--------------2-------------------|
B|-------------2-2-----5------------|
G|------------2---------6-----------|
D|----4------------------6-6--------|2x
A|---4--------------------4---------|
E|--2-------------------------------|


===================================================================================================================


 
Manga - Dünyanın sonuna doğmuşum


intro:
e|-------------------------------------------------|
B|--12-10--------10-----------12-10--------10------|
G|-9-----12-11-12--12-11-----9-----12-11-12--------|
D|----------------------12-------------------------|
A|-------------------------------------------------|
E|-------------------------------------------------|

e|----------------------------------------------------|
B|--12-10--------10-----------------------------------|
G|-9-----12-11-12--12-11------------------------------|
D|----------------------12-14-14-16-17-16-14-12-16-14-|
A|----------------------------------------------------|
E|----------------------------------------------------|



===================================================================================================================


 
Manga - Dursun Zaman


Her sabah doğan güneş bir sabah doğmaz oldu
E|--------------------------------------------------------|
B|--------------------------------------------------------|
G|---7-7-7-7-7-7h8------------7-7-7-7-7-7h8---------------|
D|-0-0-0-0-0-0-0-0----------0-0-0-0-0-0-0-----------------|
A|--------------------------------------------------------|
E|--------------------------------------------------------|

Elleri ellerimden kayıp giden yıldız oldu
E|---------------------------------------------------------|
B|---------------------------------------------------------|
G|---8-8-8-8-8-8h10-------8-8-8-8-8-8h10-------------------|
D|-0-0-0-0-0-0-0-0------0-0-0-0-0-0-0-0--------------------|
A|---------------------------------------------------------|
E|---------------------------------------------------------|
Gülünce ışık saçan o gözler yaşla doldu
E|---------------------------------------------------------|
B|---------------------------------------------------------|
G|---5-5-5-5-5-5h6----------5-5-5-5-5-5h6------------------|
D|-0-0-0-0-0-0-0-0--------0-0-0-0-0-0-0-0------------------|
A|---------------------------------------------------------|
E|---------------------------------------------------------|

Ağlama duymaz artık bir varmış, bir yok oldu
E|---------------------------------------------------------|
B|---------------------------------------------------------|
G|---3-2-2-2-2-2h3----------2-2-2-2-2-2h3------------------|
D|-0-0-0-0-0-0-0-0--------0-0-0-0-0-0-0-0------------------|
A|---------------------------------------------------------|
E|---------------------------------------------------------|

Giderken bıraktığı bütün renkler siyah oldu
E|---------------------------------------------------------|
B|---------------------------------------------------------|
G|---7-7-7-7-7-7h8----------7-7-7-7-7-7h8------------------|
D|-0-0-0-0-0-0-0-0--------0-0-0-0-0-0-0-0------------------|
A|---------------------------------------------------------|
E|---------------------------------------------------------|

Üzülme anla artık belki de huzur buldu
E|---------------------------------------------------------|
B|---------------------------------------------------------|
G|---8-8-8-8-8-8h10---------8-8-8-8-8-8h10-----------------|
D|-0-0-0-0-0-0-0-0--------0-0-0-0-0-0-0-0------------------|
A|---------------------------------------------------------|
E|---------------------------------------------------------|


===================================================================================================================


 
Manga - Hayat Bu işte


E---4-4-2-5-2-2-4-5-5-5-4-2-5-4-----4-4-2-4-5-2-2-5-5-5-4-2-5-4-----
B-2------------------------------2-2------------------------------

E---9-9-7-9-10-7-7-9-10-10-10-9-7-10-9-
B-9------------------------------------

E---9-9-7-9-10-7-7-9-10-10-10-9-7-10-9-7-10-9-
B-9-------------------------------------------

E----------------9-9-7----7-----------------------
B-10-10-9-7-7--7-------10---10-9--------10-10-9-7-
G--------------------------------9--9-9-----------

E---------------9-9--------7---------------------------
B-10-9-7-7--7-7------10-10----10-9------10-10-9-10-9-7-
G----------------------------------9--9----------------


===================================================================================================================


 
Manga - Her Aşk Ölümü Tadacak

E|-----------------6-------------------6----------------------------
B|--7----7----7---------6----6----6------------------------7--------
G|----8----8----8----8----7----7----7----7--8----8----8-------------
D|--------------------------------------------9----9----9----9------
A|------------------------------------------------------------------
E|------------------------------------------------------------------

E|------------------------------------------------------------------
B|-----------------6-------------------7-------------------6--------
G|--7----7----7---------8----8----8---------7----7----7-------------
D|----8----8----8----8----9----9----9----9----8----8----8----8------
A|------------------------------------------------------------------
E|------------------------------------------------------------------

E|-----------------------------(1|----------------------------------|
B|-----------------------------(1|----------------------------------|
G|-----------------------------(1|----------------------------------|
D|--9-----9-----9-----9--------(1|--8-----8-----8-----8-------------|
A|----11----11----11----11-----(1|----10----10----10----10----------|
E|-----------------------------(1|----------------------------------|

E|--(2|----------------------------|
B|--(2|----------------------------|
G|--(2|----------------------------|
D|--(2|--8-6-----8-----------------|
A|--(2|------9-8---9-8-6-----------|
E|--(2|----------------------------|



===================================================================================================================


 
Manga - Alışırım gözlerimi kapamaya

İNTRO:
E-----------------------------------------------------------------------
B-----------------------------------------------------------------------
G-7-7-9-7-9-7-12-10-9--7-7-9-7-9-7-12-10-9-10--7-9-10-12-14-12-14-12-14—
D-----------------------------------------------------------------------
A-----------------------------------------------------------------------
E-----------------------------------------------------------------------

E-----------------------------------------------------------------------
B-----------------------------------------------------------------------
G-12-10-12-10-12---10-10-10-9-9-9-9-9-10-10-10-9-9-9-9-9---------------- x2
D-----------------------------------------------------------------------
A-----------------------------------------------------------------------
E-----------------------------------------------------------------------


===================================================================================================================
Geri
  • Yorumlar: 0
  • Görüntülenme: 6827
Değerli ziyaretçimiz, sitemize üye iseniz lütfen giriş yapınız.
Üye değilseniz üye olmak için tıklayın.


Yorum Ekle

İsim:*
E-Mail:*
Kalın İtalik Altı Çizili Üzeri Çizili | Sola Yasla Ortala Sağa Yasla | İfade Ekle Bağlantı EkleKorumalı Link Girin Renk Seç | Gizli Metin Alıntı Ekle Farklı Bir Alfabe ile Yazılmış Olan Seçili Metni Kiril Alfabesine Çevir Spoiler Ekle
Güvenlik Kodundaki 2 Kelimeyi Giriniz: *