Çevrimiçi Yerli Akorcu :)


Anket
Yerli Akor Sakinleri Hangi Burçtan ?
Koç
Boğa
İkizler
Yengeç
Aslan
Başak
Terazi
Akrep
Yay
Oğlak
Kova
Balık
SANATÇILAR..
Popüler Konular
Seçmece Akorlar
Kategori: Sezen Aksu
Sezen Aksu Gitar Tabları
Sezen Aksu Gitar Tabları
Ülkemizde yaptığı besteler yazdığı eseler seslendirdiği parçalar ile ülkemizde müzik dünyasının en önemli yerlerinde bulunan ünlü sanatçı Sezen Aksu bu özelliklerin ziyade oyunculuk deneyimi yaşamıştır. Sezen Aksu Levent Yüksel , Sertap Erener gibi isimleri Müzik dünyasına kazandırmıştır. Ünlü sanatçının büyük başarılarının yanı sıra devlet sanatçılığı teklif edilmiş lakin bu isteği geri çevirmiştir. Slow Aşk şarkıların gözdesi minik serçenin parçalarından seçtiğimiz Gitar tablarını sizler için hazırladık..



===================================================================================================================
===================================================================================================================

 
Sezen Aksu - Ah İstanbul


Ah İstanbul İstanbul olalı/Hiç görmedi böyle keder
E------------------/------------
B------------------/-----0-0--0-
G----0-2-2-2-0---2-/----0---0---
D-2-3---------3-2--/-2-3-----2--
A------------------/------------
E------------------/------------
Geberiyorum aşkından/Kalmadı bende gururdan eser
E----------------/-------------------------
B------0-1-0-3-1-/-0-1-3-0-0---0-1-0-------
G-0-0-2----------/----------2-2-----2-0----
D----------------/---------------------3-2-
A----------------/-------------------------
E----------------/-------------------------


===================================================================================================================
===================================================================================================================

 
Sezen Aksu - Belalım


İNTRO

e-----------------------------------------------------
b---7--7--7-7--7--7--7--7---8---7---5---3---5----7---5
g-----------------------------------------------------
d----------------------------------------------------
a------------------------------------------------
e----------------------------------------------------

e--------------------------------------------------------
b--7--5---3---1--3---5---3-----5---3---1---0-------------
g--------------------------------------------------------
d--------------------------------------------------------
a--------------------------------------------------------
e--------------------------------------------------------

e---------------------------------------------------------
b--0-0-0-0-0-0-0---1--3--5---7-7---5--3--5---7---7-7-5---1-3-0---(0-1-0)
g-----------------------------------------------------
d---------------------------------------------------
a----------------------------------------------------
e----------------------------------------------------
Uçurum uçurum gözlerine baktığım sensin
Prangalarca boynuma takığım sensin

e--------------------------------------------------------
b--(0--1--3--5)---5-5--3---1--0-------------------------------
g------------------------------2/4--4-4-5--7--9---11-11--9--12--11
d--------------------------------------------------------
a--------------------------------------------------------
e--------------------------------------------------------
Dağ gülleri gibi gibi hasret çektiğim

e---------------------------------------------------------
b---5-5--3---1--0-----------------------------------------
g-----------------2/4--4-4-5-7--9---11--11--9--5--7---4-----
d--------------------------------------------------------
a--------------------------------------------------------
e--------------------------------------------------------
Her gece uyku diye yattığım sensin

e--------------------------------------------------------
b--7-8-5---7-8-5---7-8-5---5-7-3---5-7-3---5-7-3---------
g--------------------------------------------------------
d--------------------------------------------------------
a--------------------------------------------------------
e--------------------------------------------------------
Yanarım,yanarım,tutuşur yanarım kavurur ateşim

e--------------------------------------------------------
b--3-5-1-----3-5-1-----1-1--0-0--------------------------
g--------------------------------------------------------
d--------------------------------------------------------
a--------------------------------------------------------
e--------------------------------------------------------
seni de beni de belalım

e--------------------------------------------------------
b---0-1-3-5--------1--3--0-0------------------------------
g--------------------------------------------------------
d--------------------------------------------------------
a--------------------------------------------------------
e--------------------------------------------------------
OoOoOoOoOoO belalım...


===================================================================================================================
===================================================================================================================

 
Sezen Aksu - Ben Sende Tutuklu Kaldım



B--9-10-12---9-7-5-3-5/7
Ben sende tutuklu kaldım.

B--7-9-10---7-5-3-2-3/5
Kendi hayatımdan caldım.

B--5-7-9-10-10-9-5-3
Yedi cihan dolandım.

B--3-5-7-3--5-3-2-9
Bana mısın demıyor...

E-12-12-12--8-10-12-10
B---------------------
Sakladım gözlerimi

E-10-10-10--6-8-10-8
B----------------------------
Sustum hep sözlerimi

E-10-14-12--8-10-12-10 12-10-8-6-8
B----------------------------------------------
Yandım yar közlerimi ah....

E-10-10-10-12-10-8-12
B----------------------------
Savur savur bitmiyor


===================================================================================================================
===================================================================================================================

 
Sezen Aksu - Firuze


E:---7---------------8----8-7-8-10-12-8-10-7-8-7------------
B:-----8-10-8------------------------------------10-8-------
C:-9----------10-9-9---10-----------------------------10-9--
D:----------------------------------------------------------
A:----------------------------------------------------------
E:----------------------------------------------------------

E:---7---------------8----8-7-8-10-12-12-12-10-12-13-15-15-15
B:-----8-10-8------------------------------------------------
C:-9----------10-9-9---10------------------------------------
D:-----------------------------------------------------------
A:-----------------------------------------------------------
E:-----------------------------------------------------------

E:-12-13-15-13-13-13-13-12-10-12-8-10-7-8-7------------------
B:---------------------------------------10-8----------------
C:--------------------------------------------10-9-----------
D:-----------------------------------------------------------
A:-----------------------------------------------------------
E:-----------------------------------------------------------


===================================================================================================================
===================================================================================================================

 
Sezen Aksu - Haydi Gel Benimle Ol


e--8-10-12-12-10-12-8--
Haydi gel benimle ol ,

e-7-8-10-10-8-10-7--
Oturup yıldızlardan

e-5-7-8-8-7-8-5-5-4-5-7
bakalım dünyadaki neslimize

e---5-7-8-8-7-8-5-
Ordaki sevgililer

e-3-5-7-7-5-7-3-
özenip birer birer

e-1-3-5-5-3-5-7-5-3-1-0-
Gün olur erişirler ikimize


===================================================================================================================
===================================================================================================================

 
Sezen Aksu - Kaybolan Yıllar


E -------------------------------- | --------------------------- | --------------------------- |
B 6-11-10-11-10-8-10-8-6-8-8-8-6-4 | 4-10-8-10-8-6-8-6-4-6-6-6-4 | 3-8-6-8-6-4-6-4-3-1-1-3-4-1 |
G -------------------------------- | --------------------------- | --------------------------- |
D -------------------------------- | --------------------------- | --------------------------- |
A -------------------------------- | --------------------------- | --------------------------- |
E -------------------------------- | --------------------------- | --------------------------- |


E -------------------------
B 1-3-4-6-4-3-4-6-8-6-4-3-1
G -------------------------
D -------------------------
A -------------------------
E -------------------------


===================================================================================================================
===================================================================================================================

 
Sezen Aksu - Masum Değiliz


E|----------0-1-1----1----0-1-0------------------|
B|----1--3--------3----3--------3-1---0-1--------|
G|-----------------------------------------------|
D|-----------------------------------------------|
A|-----------------------------------------------|
E|-----------------------------------------------|


E|----------0-1-3-1-0-------1---0-1-0------------|
B|----1--3------------3---3---3-------3-1---0-1--|
G|-----------------------------------------------|
D|-----------------------------------------------|
A|-----------------------------------------------|
E|-----------------------------------------------|


E|--0----------------------0----------------------|
B|-1-1-3-0--1-3-0-1-0-1--1--1-3-0--1--3-0-1---0-1-|
G|------------------------------------------------|
D|------------------------------------------------|
A|------------------------------------------------|
E|------------------------------------------------|


===================================================================================================================
===================================================================================================================

 
Sezen Aksu - Sen Ağlama


E:---0-1-3-3---0-1-3-3---0-1-3-5-3-1-0--0------------------------------------
B:----------------------------------------1-6-5-3----------------------------
G:---------------------------------------------------------------------------
D:---------------------------------------------------------------------------
A:---------------------------------------------------------------------------
E:---------------------------------------------------------------------------

E:---------------------------------------------------------------------------
B:---0-1-3-3---0-1-3-3---0-1-3-5-3-1-0---------------------------------------
G:---------------------------------------1-6-5-3-1---------------------------
D:---------------------------------------------------------------------------
A:---------------------------------------------------------------------------
E:---------------------------------------------------------------------------


===================================================================================================================
===================================================================================================================


 
Sezen Aksu - Tükeneceğiz


E--------------------------------------------------------------------
B-7/8---8-7-5-3-1------5/7---7-5-3-1-0-------3/5---5-3-1-0-1-3-------
G-------------------------------------------------------------------
D--------------------------------------------------------------------
A--------------------------------------------------------------------
E--------------------------------------------------------------------

E--------------------------------------------------------------------
B---0-1-3-5-7/8---8-7-5-3-1----5/7----7-5-3-1-0-----3/5----5-3-1-0-1-
G-3------------------------------------------------------------------
D--------------------------------------------------------------------
A--------------------------------------------------------------------
E--------------------------------------------------------------------

E--------------------------------------------------------------------
B-0-8-5---7--3----1-3--5---1-0-0-------------------------------------
G-------------------------------------------------------------------
D--------------------------------------------------------------------
A--------------------------------------------------------------------
E-------------------------------------------------------
Geri
  • Yorumlar: 0
  • Görüntülenme: 9873
Değerli ziyaretçimiz, sitemize üye iseniz lütfen giriş yapınız.
Üye değilseniz üye olmak için tıklayın.


Yorum Ekle

İsim:*
E-Mail:*
Kalın İtalik Altı Çizili Üzeri Çizili | Sola Yasla Ortala Sağa Yasla | İfade Ekle Bağlantı EkleKorumalı Link Girin Renk Seç | Gizli Metin Alıntı Ekle Farklı Bir Alfabe ile Yazılmış Olan Seçili Metni Kiril Alfabesine Çevir Spoiler Ekle
Güvenlik Kodundaki 2 Kelimeyi Giriniz: *