Çevrimiçi Yerli Akorcu :)


Anket
Yerli Akor Sakinleri Hangi Burçtan ?
Koç
Boğa
İkizler
Yengeç
Aslan
Başak
Terazi
Akrep
Yay
Oğlak
Kova
Balık
SANATÇILAR..
Popüler Konular
Seçmece Akorlar
Kategori: Ahmet Kaya
Ahmet Kaya Kendine iyi Bak Akor ve Gitar Ritimleri


Ahmet Kaya Kendine iyi Bak Tüm Versiyonlarda Akorları ve Ritimleri

Müzik dünyasında önemli bir yer sahibi olmuş bir çok bestenin sahibi olan Ahmet Kayanın şarkıları arasında önemli yer sahibi olmuş Kendine İyi Bak şarkısının tüm versiyonlarını konu edindiğimiz bu sayfamızda bulabilirsiniz..

=================================================================================================================================

AHMET KAYA - KENDİNE İYİ BAK Ver1

ŞARKI RİTMİ : AA-YY-AY

Dm                 Am
Yan yana geçen geceler unutulup gider mi
Dm Am
Acılar birden biter mi
Dm Am
Bir bebek özleminde seni aramak var ya
E Am
Bu hep böyle böyle gider mi
Dm Am
Suya hasret çöllerde beyaz güller biter mi
Dm Am
Dikenleri göğü deler mi
Dm Am
Bir menekşe kokusunda seni aramak var ya
E Am
Bu hep böyle böyle gider mi
Dm Am ] nakarat 2 tekrar
Kendine iyi bak beni düşünme ]
E Am ]
Su akar yatağını bulur ]
Dm Am
İçimdeki fırtına, kör kurşunla diner mi
Dm Am
Kavgalar kansız biter mi
Dm Am
Bir mavzer çığlığında seni aramak var ya
E Am
Bu hep böyle böyle gider mi
Dm Am
Şu kahpe dünya seni bana düşman eder mi
Dm Am
Dostluklar birden biter mi
Dm Am
Bir kardeş selamında seni aramak var ya
E Am
Bu hep böyle böyle gider mi
Nakarat

=================================================================================================================================

AHMET KAYA - KENDİNE İYİ BAK Ver2

ŞARKI RİTMİ : AA-YY-AY

Fm                     Cm
Yan yana geçen geceler unutulup gider mi
Fm Cm
Acılar birden biter mi
Fm Cm
Bir bebek özleminde seni aramak var ya
G Cm
Bu hep böyle böyle gider mi.
Fm Cm
Suya hasret çöllerde beyaz güller biter mi
Fm Cm
Dikenleri göğü deler mi
Fm Cm
Bir menekşe kokusunda seni aramak var ya
G Cm
Bu hep böyle böyle gider mi.
Fm Cm
Kendine iyi bak beni düşünme
G Cm
Su akar yatağını bulur,
Fm Cm
Kendine iyi bak beni düşünme
G Cm
Su akar yatağını bulur,
Fm Cm
İçimdeki fırtına, kör kurşunla diner mi
Fm Cm
Kavgalar kansız biter mi
Fm Cm
Bir mavzer çığlığında seni aramak var ya
G Cm
Bu hep böyle böyle gider mi
Fm Cm
Şu kahpe dünya seni bana düşman eder mi
Fm Cm
Dostluklar birden biter mi
Fm Cm
Bir kardeş selamında seni aramak var ya
G Cm
Bu hep böyle böyle gider mi


=================================================================================================================================

AHMET KAYA - KENDİNE İYİ BAK TAB

ŞARKI RİTMİ : AA-YY-AY

e--3-3-3-1-0-1-3-0-1-1-1-3-1-0--------------------------
B------------------------------3------------------------
G-------------------------------------------------------
D-------------------------------------------------------
A-------------------------------------------------------
E-------------------------------------------------------
Suya hasret çöllerde beyaz güller biter mi...
e--3-3-3-1-0-3-0-1--------------------------------------
B-------------------------------------------------------
G-------------------------------------------------------
D-------------------------------------------------------
A-------------------------------------------------------
E-------------------------------------------------------
Dikenleri göğü deler mi...
e--3-3-3-1-0-1-3-5-1-1-0---0-1-0---0-0-------0-1--------
B------------------------3-------------3-2-3-----3------
G-------------------------------------------------------
D-------------------------------------------------------
A-------------------------------------------------------
E-------------------------------------------------------
Bir menekşe kokusunda seni aramak var ya Bu hep böyle böyle gider mi.
e--3-3-1-0-1-3-5-1-1-0---0-1-0-0-------0-1------0-1-3---
B----------------------3---------3-2-3-----3------------
G-------------------------------------------------------
D-------------------------------------------------------
A-------------------------------------------------------
E-------------------------------------------------------
Kendine iyi bak beni düşünme su akar yatağını bulur...
e--3-3-1-0-1-3-5-1-1-0---0-1-0-0-------0-1--------------
B----------------------3---------3-2-3-----3------------
G-------------------------------------------------------
D-------------------------------------------------------
A-------------------------------------------------------
E-------------------------------------------------------
Kendine iyi bak beni düşünme su akar yatağını bulur...
Geri
  • Yorumlar: 0
  • Görüntülenme: 37915
Değerli ziyaretçimiz, sitemize üye iseniz lütfen giriş yapınız.
Üye değilseniz üye olmak için tıklayın.


Yorum Ekle

İsim:*
E-Mail:*
Kalın İtalik Altı Çizili Üzeri Çizili | Sola Yasla Ortala Sağa Yasla | İfade Ekle Bağlantı EkleKorumalı Link Girin Renk Seç | Gizli Metin Alıntı Ekle Farklı Bir Alfabe ile Yazılmış Olan Seçili Metni Kiril Alfabesine Çevir Spoiler Ekle
Güvenlik Kodundaki 2 Kelimeyi Giriniz: *