Çevrimiçi Yerli Akorcu :)


Anket
Yerli Akor Sakinleri Hangi Burçtan ?
Koç
Boğa
İkizler
Yengeç
Aslan
Başak
Terazi
Akrep
Yay
Oğlak
Kova
Balık
SANATÇILAR..
Popüler Konular
Seçmece Akorlar
Bulutsuzluk Özlemi Bağdat Kafe Akor ve Gitar Ritimleri
Bulutsuzluk Özlemi Bağdat Kafe Tüm Versiyonlarda Akor ve Gitar Ritimleri
Ülkemizde ilk Türkçe isimli rock grubudur. Dönemin Türkçe kelimeler ile rock şarkıları yapılabilir mi sorusuna karşı olarak çıkan ve ülkeye rock müziğinin anadolu yansımasını oturtmuş. sebeble büyük bir hayran kitlesine sahip olmuşlardır.Grup, şarkı sözlerinde özellikle sosyolojik, psikolojik, ekonomik ve politik konuları işlemiştir. Grubun değişmeyen üyeleri; Nejat Yavaşoğulları ve Sina Koloğlu'dur. Seksenli yılların sonundan bu zamana kadar albümleri ile kendilerinden söz ettiren grup başarılarına yurt içinde yaptıkları konserler ile devam etmektedir. Başarılı grubun en güzel parçalarından Bağdat Kafe gitar akor ritimlerini sizler için paylaştık.. Beğenmeniz dileğiyle..

===================================================================================================================
===================================================================================================================
 
Bulutsuzluk Özlemi - Bağdat Kafe Ver1
Şarkı Ritmi : A-A-YYY-AYAY
Em C
Yolumuz uzun yavrum, sen Leyla ben Mecnun
Em C
Maksat Bağdat, Babil’in kulesi
Em G
En kolay yol çöl, en kestirme
Am Em
Lakin yaşlı kahin der, dur gitme
G Am D Em
Orda taş üstünde taş, omuz üstünde baş kalmadı
Em C
Fırtınadan kumlar, içimize sızar
Em C
Çöl rüzgarı yüzümüzü kavurur, dudaklarımız çatlar
Em G
Serap görür, gönlüm mü avunur? şu gelen yarim mi?
Am Em
Göster yolu kahin, çok yorgunum
G Am
Bekler o şimdi beni, çok geç kaldım
D Em
Buluşmam lazım, Bağdat Kafe’de
D Em C Em
Bağdat Kafeeeeeee varamadım hala (2 KEZ)
Em C
Gittik mi gidebildik mi? yoksa kaybolduk mu?
Em C
Gördüklerimiz neydi, büyülendik mi?
Em G
Yolun sonu neresi, hani kent nerde?
Am Em
Göster yolu kahin, çok yorgunum
G Am
Bekler o şimdi beni, çok geç kaldım
D Em
Buluşmam lazım, Bağdat Kafe’de
D Em C Em
Bağdat Kafeeeeeee varamadım hala (2 KEZ)
G Em
Ordaaaaaa “buluşamadıktan sonra”
C Em
Duruyor mu hala?
G Em
Ordaaaaaa
C Em
Duruyor mu hala?
Em
Bağdat Kafe (3 KEZ)

===================================================================================================================
===================================================================================================================
 
Bulutsuzluk Özlemi - Bağdat Kafe TAB
Şarkı Ritmi : A-A-YYY-AYAY

E |----------------0----------------0---------0-----------------0-------
B |----------------0----------------1---------0-----------------1-------
G |----------------0----------------0---------0-----------------0-------
D |-------------2-------0^2-0----2--2------2--------0^2-0----2--2-------
A |-----------2----------------3---------2-----------------3------------
E |--0-0^3--------------------------------------------------------------
E |-----------------------------------------------------------
B |-----------------------------------------------------------
G |------4-5-4h5h4---4--------------------------4-------------
D |----------------7-----------5-7-5h7h5-4--5-7----5--2-------
A |-----------------------------------------------------------
E |--0---------------------0--------------------------------0-
E |-----------------------------------------------------------
B |-----------------------------------------------------------
G |--4-5-7-5h7h5-4------7^9--7--5--4--------------------------
D |----------------------------------7---4-5-4h5h4------------
A |-------------------------------------------------5--5^7----
E |------------------0-----------------------------------0----


===================================================================================================================
===================================================================================================================
 
Bulutsuzluk Özlemi - Bağdat Kafe Ver2
Şarkı Ritmi : A-A-YYY-AYAY

Em
Yolumuz uzun yavrum,
C
Sen Leyla, ben Mecnun
Em
Maksat Bağdat,
C
Babil’in kulesi.
Em
En kolay yol çöl,
C
En kestirme
D
Lakin yaşlı kahin der dur gitme.
G Am D Em
Orda taş üstünde taş, omuz üstünde baş kalmadi
Em
Fırtınadan kumlar,
C
İçimize sızar,
Em
Çöl rüzgarı yüzümüzü kavurur,
C
Dudaklarımız çatlar.
Serap görür, gönlüm mü avunur?
Şu gelen yarim mi?
D
Göster yolu kahin, çok yorgunum.
G
Bekler o şimdi beni.
Am
Çok geç kaldım.
D Em
Buluşmam lazım, Bağdat Kafe’de.
Geri
  • Yorumlar: 0
  • Görüntülenme: 3048
Değerli ziyaretçimiz, sitemize üye iseniz lütfen giriş yapınız.
Üye değilseniz üye olmak için tıklayın.


Yorum Ekle

İsim:*
E-Mail:*
Kalın İtalik Altı Çizili Üzeri Çizili | Sola Yasla Ortala Sağa Yasla | İfade Ekle Bağlantı EkleKorumalı Link Girin Renk Seç | Gizli Metin Alıntı Ekle Farklı Bir Alfabe ile Yazılmış Olan Seçili Metni Kiril Alfabesine Çevir Spoiler Ekle
Güvenlik Kodundaki 2 Kelimeyi Giriniz: *