Çevrimiçi Yerli Akorcu :)


Anket
Yerli Akor Sakinleri Hangi Burçtan ?
Koç
Boğa
İkizler
Yengeç
Aslan
Başak
Terazi
Akrep
Yay
Oğlak
Kova
Balık
SANATÇILAR..
Popüler Konular
Seçmece Akorlar
Candan Erçetin Ben Kimim Akoru ve Gitar RitimleriCandan Erçetin Ben Kimim Tüm Versiyonlarda Akor ve Gitar Ritimleri
1995 den günümüze kadar bir çok albüme sahip başarılı şarkıcı Candan Erçetin bu uzun süreçde seslendirmiş olduğu ve büyük beğeni toplayan bir çok şarkı mevcuttur. Ülkemizide temsil ettiği yarışmalarda yine ülkemiz adına büyük başarılara imza atmıştır. Slow aşk parçalarıyla müziksever arasında büyük bir yere sahip olan başarılı sanatçı Candan Erçetin'in en çok sevilen parçalarından Ben Kimim şarkısının akoru ve gitar ritimlerini sizler için hazırladık..

==========================================================================================================================

Candan Erçetin - Ben Kimim Ver1

ŞARKI RİTMİ : A-aYY-AAY

Am
Az mıyım çok muyum?
G dm
Var mıyım yok muyum?
Am
Ben neyim?
G F
Masal mıyım gerçek miyim?
Am
Kaç mıyım göç müyüm?
G dm
Hiç miyim suç muyum?
Am
Ben kimim?
G F
İbret miyim cinnet miyim?
Am
Hiçlikler içinde kanayan yürek
Em
Yokluklar içinde savaşan beden
Dm
Boşluklar içinde karışan zihin
Em Dm Am
Güçlükler içinde değil miyim?
F Em
Yoksa Yoksa
Am
Her ihanete akıl erdiren
Em
Her cehalete kılıf uyduran,
Dm
Her esarete fiyat biçtiren
Em Dm Am
Sen değil de ben miyim?
am
Geçimsizim bugünlerde
G
Kısmetsizim bu yerlerde
F
Değersizim bu ellerde
Em Am
Çaresizim doğduğum yerde
Em Am
Gölgesizim her gün her yerde

============================================================================================================================

Candan Erçetin - Ben Kimim Ver2

ŞARKI RİTMİ : A-aYY-AAY


Am G Dm
E-------------|---------------|---------1-0---0-----|------
B--------1----|---------0-----|-------------3---1---|------
G-------------|---------------|-----2---------------|------
D----2--------|-----0---------|--0------------------|------
A--0----------|---------------|---------------------|------
E-------------|--3------------|---------------------|------
F Am
E-------------------|------------------------------
B----------3-1-0-1--|------------1-0---------------
G-------------------|----------------0-2-----------
D------3------------|--------2--------------------- 2 kez sonra tekrar baştan
A----3--------------|-----0------------------------
E-------------------|------------------------------
Geri
  • Yorumlar: 0
  • Görüntülenme: 3027
Değerli ziyaretçimiz, sitemize üye iseniz lütfen giriş yapınız.
Üye değilseniz üye olmak için tıklayın.


Yorum Ekle

İsim:*
E-Mail:*
Kalın İtalik Altı Çizili Üzeri Çizili | Sola Yasla Ortala Sağa Yasla | İfade Ekle Bağlantı EkleKorumalı Link Girin Renk Seç | Gizli Metin Alıntı Ekle Farklı Bir Alfabe ile Yazılmış Olan Seçili Metni Kiril Alfabesine Çevir Spoiler Ekle
Güvenlik Kodundaki 2 Kelimeyi Giriniz: *