Çevrimiçi Yerli Akorcu :)


Anket
Yerli Akor Sakinleri Hangi Burçtan ?
Koç
Boğa
İkizler
Yengeç
Aslan
Başak
Terazi
Akrep
Yay
Oğlak
Kova
Balık
SANATÇILAR..
Popüler Konular
Seçmece Akorlar
Kategori: Duman
Duman Elleri Ellerime Akor ve Gitar Ritimleri[b]Duman Elleri Ellerime Tüm Versiyonlarda Akor ve Gitar Ritimleri[/b]
1999 yılında kurulan grup Türkçe rock müzikseveler açısından büyük bir yere sahipdir. Grup şarkılarında Rock müzikden ziyade vokalist Kaan Tangöze'nin kendine ait slow tarzından ötürü kendi müzik dallarında farkındalık yaratmalarına sebeb olmuştur. Ülkemizde ki gruplar arasında dallarında şüphe yok ki en yüksek seviyede olan Duman grubunu severler için en çok sevilen parçalardan Elleri Ellerime şarkısının akorlarını ve gitar ritimlerini sizler için araştırdık.

========================================================================================================================================

[b] Duman - Elleri Ellerime Ver1 [/b]

[b]ŞARKI RİTMİ : AAYYAY


Seni gördüm göreli
şaşırdım, dolaşırım bir başıma
seni bildim bileli
kaçırdım şu aklı başımdan

Am G Sus
elleri ellerime
Am G Sus
gözleri gözlerime
Am G
saçları saçlarıma
E
karışan bir sen olsan
seni gördüm göreli
şaşırdım, dolaşırım bir başıma
seni bildim bileli
kaçırdım şu aklı başımdan
Am G Sus
elleri ellerime
Am G Sus
gözleri gözlerime
Am G
saçları saçlarıma
E
karışan bir sen olsan

========================================================================================================================================

[b] Duman - Elleri Ellerime Ver2 [/b]

[b]ŞARKI RİTMİ : AAYYAY



D|12-12-12-10-10-10-10-9-9-9-9-7-7-7-7-5-5-5-5-4-4-4-4-5-5-5-5-7-7-7-7
D|12-12-12-10-10-10-10-9-9-9-9-7-7-7-7-5-5-5-9-9-7-7-5-5-4
D|12-12-12-10-10-10-10-9-9-9-9-7-7-7-7-5-5-5-5-4-4-4-4-5-5-5-5-7-7-7-7
D|--6---7---8---9-9-12-9
A|5---5---5---5---------
G|--------------------------------------0-2---0-2-0---0
D|10-12---9-10---7-9---5-7-5-4----0-2-4-------------4--
G|-----------------------------2-0----------
D|10-12---9-10---7-9---5-7-5-4-----4-2------
A|-------------------------------------3-2-0
E|10-9-8-7-8-----7-5--------------------------------------
B|-------------------8-7-5--------------------------------
G|-----------7-6-----------7-6-5-7-6-5------------5-6-7-9-
D|-------------------------------------7-5------7---------
A|-----------------------------------------5--7-----------
E|----------------------12-12
B|--9---10---11---12-12------
G|9---9----9----9------------
Geri
  • Yorumlar: 1
  • Görüntülenme: 13729
Değerli ziyaretçimiz, sitemize üye iseniz lütfen giriş yapınız.
Üye değilseniz üye olmak için tıklayın.

  • 26 Ocak 2017 18:43
  • Kayıt Tarihi: 26.01.2017
  • ICQ:
  • Yorumları: 4
  • Konuları: 0
  • Durum: Şuan Offline
Может кому интересно. Наткнулся на классную программку где все фильмы, сериалы On-Line только в хорошем качестве и без рекламы и заморочек . и всё это счастье бесплатно, скачать можно здесь > planetfilms.gq < а так же Online TV. Смотрите на здоровье!

Yorum Ekle

İsim:*
E-Mail:*
Kalın İtalik Altı Çizili Üzeri Çizili | Sola Yasla Ortala Sağa Yasla | İfade Ekle Bağlantı EkleKorumalı Link Girin Renk Seç | Gizli Metin Alıntı Ekle Farklı Bir Alfabe ile Yazılmış Olan Seçili Metni Kiril Alfabesine Çevir Spoiler Ekle
Güvenlik Kodundaki 2 Kelimeyi Giriniz: *