Çevrimiçi Yerli Akorcu :)


Anket
Yerli Akor Sakinleri Hangi Burçtan ?
Koç
Boğa
İkizler
Yengeç
Aslan
Başak
Terazi
Akrep
Yay
Oğlak
Kova
Balık
SANATÇILAR..
Popüler Konular
Seçmece Akorlar
Düş Sokağı Sakinleri Sevdan Bir Ateş Akor ve Gitar Ritimleri
Düş Sokağı Sakinleri Sevdan Bir Ateş Tüm Versiyonlarda Akor ve Gitar Ritimleri
Murat Çelik ve Murat Yılmazyıldırımın öncüsü olduğu grup 1993 yılında kurulmuş olup alternatif rock müzik türünde müzik dünyasına adım atmışlardır. Kendilerine ait besteler ve tarzı ile bu müzik türünde kendilerine diğer gruplar arasında ayrı bir yer edinmeyi başardılar. İlk albümleri ile büyük bir kitle olmasa bile müzik tarzlarını benimsemiş hatrı sayılır bir kitleye hitap etmeyi başardılar.1993 den 2011 yılına dek bir çok albüme imza atan ünlü grubun en çok sevilen şarkılarından Sevdan Bir Ateş gitar ritimlerini ve akorlarını sizler için hazırladık.
====================================================================================================
====================================================================================================
 
Düş Sokağı Sakinleri - Sevdan Bir Ateş Ver1
Şarkı Ritmi : AK-YY-KY
Em G F Em
Senin alev gözlerin eritse şu ruhumu
Em G F Em
Buz olur kesilirim yanarken içim
F Dm G Em
Buz olur kesilirim yanarken içim

Em G F Em
Sesin bir uçurum çağırırsa beni
Em G F Em
Kuş olur uçarım yanarken içim
F Dm G Em
Kuş olur uçarım yanarken içim

Am F G Em )
Sevdan bir ateş oldu bende )
F Dm G Em ) 2
Gönlüm bir deli coştu sende )

Em G F Em
Saçların rüzgarından savururken gönlümü
Em G F Em
Sürgün olur göçerim bu diyarlardan
F Dm G Em
Sürgün olur göçerim bu diyarlardan

Em G F Em
Kime dokunur ellerim kimi görür gözlerim
Em G F Em
Ölüm çıkar karşıma yine sen derim
F Dm G Em
Ölüm çıkar karşıma yine sen derim
Am F G Em )
Sevdan bir ateş oldu bende )
F Dm G Em ) 2
Gönlüm bir deli coştu sende )

====================================================================================================
====================================================================================================
 
Düş Sokağı Sakinleri - Sevdan Bir Ateş Ver2
Şarkı Ritmi : AK-YY-KY

F#m E D F#m
Senin alev gözlerin eritse şu ruhumU
F#m E D F#m
Buz olur kesilirim yanarken içim
D Bm E F#m
Buz olur kesilirim yanarken içim

F#m E D F#m
Sesin bir uçurum çağırırsa beni
F#m E D F#m
Kuş olur uçarım yanarken içim
D Bm E F#m
Kuş olur uçarım yanarken içim

F#m D E A )
Sevdan bir ateş oldu bende )
F#m Bm E F#m ) 2
Gönlüm bir deli coştu sende )

F#m E D F#m
Saçların rüzgarından savururken gönlümü
F#m E D F#m
Sürgün olur göçerim bu diyarlardan
D Bm E F#m
Sürgün olur göçerim bu diyarlardan

F#m E D F#m
Kime dokunur ellerim kimi görür gözlerim
F#m E D F#m
Ölüm çıkar karşıma yine sen derim
D Bm E F#m
Ölüm çıkar karşıma yine sen derim

====================================================================================================
====================================================================================================
 
Düş Sokağı Sakinleri - Sevdan Bir Ateş TAB
Şarkı Ritmi : AK-YY-KY

intro
E---------------------------------------------------------|
B---------------------------------------------------------|
G---------------------------------------------------------|
D---------------------------------------------------------|
A--9-9-------7-7--------------7-7-------------------------|
E------9-10------7-9--9-9-5-7-----7-9---------------------|
intro(devamı)
E---------------------------------------------------------|
B---------------------------------------------------------|
G---------------------------------------------------------|
D---------------------------------------------------------|
A--9-9-----------7-7------------------------7-7-----------|
E------9-10-9-10----7-9-7-9-----9-9-5-7-5-7-----7-9-7-9---|
senin alev gözlerin, eritse şu ruhumu, buz olur kesilirim, yanarken içim
E---------------------------------------------------------|
B---------------------------------------------------------|
G---------------------------------------------------------|
D---------------------------------------------------------|
A------------9-7-5-5-5------------------------9-7-5-5-5--------|
E-9-9-9-9--12----------7-9-10-9----9-9-9-9--12----------7-9----|
buz olur kesilirim, yanarken içim
E---------------------------------------------------------|
B---------------------------------------------------------|
G---------------------------------------------------------|
D---------------------------------------------------------|
A-5-5-5----------7-7-7------------------------------------|
E-------5-7-9-7--------7-9--------------------------------|
Sesin bir uçurum, çağırırsa beni, kuş olur uçarım, yanarken içim
E---------------------------------------------------------|
B---------------------------------------------------------|
G---------------------------------------------------------|
D---------------------------------------------------------|
A------------9--5-5-5------------------------9---5-5-5--------|
E-9-9-9-9--12----------7-9-9------9-9-9-9--12----------7-9----|
kuş olur uçarım, yanarken içim
E---------------------------------------------------------|
B---------------------------------------------------------|
G---------------------------------------------------------|
D---------------------------------------------------------|
A-5-5-5----------7-7-7------------------------------------|
E-------5-7-7----------7-9--------------------------------|
sevdan bir ateş oldu bende, gönlüm bir deli coştu sende
E---------------------------------------------------------|
B---------------------------------------------------------|
G---------------------------------------------------------|
D---------------------------------------------------------|
A-9-9---------7-7---------------7-7-----------------------|
E-----9-9-10------7-9--9-9-5-5-7-----7-9------------------|
saçları rüzgarından, savururken gönlümü, sürgün olur göçerim, bu diyarlardan
E---------------------------------------------------------|
B---------------------------------------------------------|
G---------------------------------------------------------|
D---------------------------------------------------------|
A------------9-7-5-5-5------------------------9-7-5-5-5--------|
E-9-9-9-9--12----------7-9-10-9----9-9-9-9--12----------7-9----|
sürgün olur göçerim, bu diyarlardan
E---------------------------------------------------------|
B---------------------------------------------------------|
G---------------------------------------------------------|
D---------------------------------------------------------|
A-5-5-5----------7-7-7------------------------------------|
E-------5-7-9-7--------7-9--------------------------------|
Kime dokunur ellerim, kimi görür gözlerim, ölüm çıkar karşıma, yine sen derim
E---------------------------------------------------------|
B---------------------------------------------------------|
G---------------------------------------------------------|
D---------------------------------------------------------|
A-------------9-7-5-5-5------------------------9-7-5-5-5--------|
E-9-9-9-9-9-12----------7-9-10-9----9-9-9-9--12----------7-9----|
ölüm çıkar karşıma, yine sen derim
E---------------------------------------------------------|
B---------------------------------------------------------|
G---------------------------------------------------------|
D---------------------------------------------------------|
A-5-5-5----------7-7-7------------------------------------|
E-------5-7-9-7--------7-9--------------------------------|
sevdan bir ateş oldu bende, gönlüm bir deli coştu sende
E---------------------------------------------------------|
B---------------------------------------------------------|
G---------------------------------------------------------|
D---------------------------------------------------------|
A-9-9---------7-7---------------7-7-----------------------|
E-----9-9-10------7-9--9-9-5-5-7-----7-9------------------|
Geri
  • Yorumlar: 0
  • Görüntülenme: 25765
Değerli ziyaretçimiz, sitemize üye iseniz lütfen giriş yapınız.
Üye değilseniz üye olmak için tıklayın.


Yorum Ekle

İsim:*
E-Mail:*
Kalın İtalik Altı Çizili Üzeri Çizili | Sola Yasla Ortala Sağa Yasla | İfade Ekle Bağlantı EkleKorumalı Link Girin Renk Seç | Gizli Metin Alıntı Ekle Farklı Bir Alfabe ile Yazılmış Olan Seçili Metni Kiril Alfabesine Çevir Spoiler Ekle
Güvenlik Kodundaki 2 Kelimeyi Giriniz: *