Çevrimiçi Yerli Akorcu :)


Anket
Yerli Akor Sakinleri Hangi Burçtan ?
Koç
Boğa
İkizler
Yengeç
Aslan
Başak
Terazi
Akrep
Yay
Oğlak
Kova
Balık
SANATÇILAR..
Popüler Konular
Seçmece Akorlar
Grup 84 Affet Akor ve Gitar Ritimleri
Grup 84 Affet Tüm Versiyonlar Akor ve Gitar Ritimleri
Grup 84 albümlerinin yanı sıra 2012 yılında ülkemizde en iyi grup seçilmiştir. Grup hayranlarına gerek yurt içi gerek yurt dışında verdiği konseler ile hitap etmeye devam etmektedir. Bunun yanı sıra grubun etkilendiği sanatçılar arasında Orhan Gencebay 'ın Dokunma parçası ile büyük bir beğeni toplamış ve aşağıda bulunan Yavuz Bingöl ile düeti olan ''Kara Duvak '' parçası ile yine aynı beğeni toplamış olan başarılı grubun bu sayfamızda ise seksendördün en popüler parçaları arasında bulunan Affet şarkısının akor ve gitar ritimlerini sizler için hazırladık. iyi çalışmalar.
====================================================================================================
====================================================================================================
 
Grup Seksendört - Affet Ver1
E-----------------------------------------------------------------
B----3----5--6--5---3--2----2--3--2-------------------------------
G--2---------------------3-----------3--2-2-----------------------
D-----------------------------------------------------------------
A-----------------------------------------------------------------
E-----------------------------------------------------------------
Off yine kapalı tüm kapılar
E-----------------------------------------------------------------
B----3----5--6--5---3--2----2--3--2-------------------------------
G--2---------------------3-----------3--2-2-----------------------
D-----------------------------------------------------------------
A-----------------------------------------------------------------
E-----------------------------------------------------------------
Sor beni en uzak meyhaneye
Bb Dm
Sorda al cevabı varmıymış başkası
Bb Dm
Sahibi olsun yüreğimin
Bb Dm
Hatam var elbet ama asla büyük aşk
Bb Dm
Ezdirmez kendini ezilmez
Dm Bb Dm }
Affet ne olur bu saf deli yüreğimi }
Dm Bb Dm }
Ağla ağlaki sula kurak bedenimi } 2 kere
Bb Dm }
Olmadımki senden başkasıyla asla }
Bb Dm }
Kastınmı var söyle bu cana }
Bb Dm
aaaaaaa aaa aaaaaaa aaaa
Bb Dm
Olmadımı kalamadınmı yanımda
Bb Dm
Sensiz bir hiçmişim ben aslında
Bb Dm
Hadi gel gel kurtar acımdan
Bb Dm
Sıcaklığın hep benimle yanımda
E-----------------------------------------------------------------
B----3----5--6--5---3--2----2--3--2-------------------------------
G--2---------------------3-----------3--2-2-----------------------
D-----------------------------------------------------------------
A-----------------------------------------------------------------
E-----------------------------------------------------------------
Dm Bb Dm
Affet ne olur bu saf deli yüreğimi
E-----------------------------------------------------------------
B----3----5--6--5---3--2----2--3--2-------------------------------
G--2---------------------3-----------3--2-2-----------------------
D-----------------------------------------------------------------
A-----------------------------------------------------------------
E----------------------------------------------------------------
Dm Bb Dm
Ağla ağlaki sula kurak bedenimi
E-----------------------------------------------------------------
B---------------------3---5--3--3---5--6--------------------------
G-3---2--3-3---2--3-----------------------------------------------
D-----------------------------------------------------------------
A-----------------------------------------------------------------
E-----------------------------------------------------------------
Bb Dm
Olmadımki senden başkasıyla asla
E-----------------------------------------------------------------
B---------------------3---5--3--3---------------------------------
G-3---2--3-3---2--3-----------------------------------------------
D-----------------------------------------------------------------
A-----------------------------------------------------------------
E-----------------------------------------------------------------
Bb Dm
Kastınmı var söyle bu cana
====================================================================================================
====================================================================================================
 
Grup Seksendört - Affet Ver2

Dm
Yine kapalı tüm kapılar
Dm Bb Dm
Sor beni en uzak meyhaneye
Bb Dm
Sor da al cevabı var mıymış başkası
Bb Dm
Sahibi olsun yüreğimin
Bb Dm
Hatam var elbet, ama asla
Bb Dm
Büyük aşk ezdirmez kendini, ezilmez
Dm Bb Dm
Affet ne olur bu saf deli yüreğimi
Dm Bb Dm
Ağla ağla ki sula bırak bedenimi
Bb Dm
Olmadım ki senden başkasıyla asla
Bb Dm
Kastın mı var söyle bu cana
Bb Dm
Olmadı mı kalamadın mı yanımda
Bb Dm
Sensiz bir hiçmişim ben aslında
Bb Dm
Hadi gel gel kurtar acımdan
Bb Dm
Sıcaklığın hep benimle yanımda
Geri
  • Yorumlar: 0
  • Görüntülenme: 3644
Değerli ziyaretçimiz, sitemize üye iseniz lütfen giriş yapınız.
Üye değilseniz üye olmak için tıklayın.


Yorum Ekle

İsim:*
E-Mail:*
Kalın İtalik Altı Çizili Üzeri Çizili | Sola Yasla Ortala Sağa Yasla | İfade Ekle Bağlantı EkleKorumalı Link Girin Renk Seç | Gizli Metin Alıntı Ekle Farklı Bir Alfabe ile Yazılmış Olan Seçili Metni Kiril Alfabesine Çevir Spoiler Ekle
Güvenlik Kodundaki 2 Kelimeyi Giriniz: *