Çevrimiçi Yerli Akorcu :)


Anket
Yerli Akor Sakinleri Hangi Burçtan ?
Koç
Boğa
İkizler
Yengeç
Aslan
Başak
Terazi
Akrep
Yay
Oğlak
Kova
Balık
SANATÇILAR..
Popüler Konular
Seçmece Akorlar
Kategori: Haluk Levent
Haluk Levent Ela Gözlü Akor ve Gitar Ritimleri Haluk Levent Ela Gözlü Tüm Versiyonlarda Akor ve Gitar Ritimleri
Ülkemizde iki dönem anadolu rock dalının ortaya çıkmasında en büyük etken olan en büyük isim şüphesiz ki Haluk Leven idi. ünlü sanatçı müzik hayatına ilk önce barlarda da çalarak başladı lakin ilk albümüe olan bekletiden fazla ilgi onun ülke capındakini kemikleşen bir hayran kitlesinin oluşmasına ilk işaret olarak gösterilebilir.Ünlü şarkıcıyı diğer şarkıcılar dan ayıran bir özellikde ülke çapında en çok konser veren bir kişi olarak görebiliriz. Bu konserlerin çoğu ise vakıf yardımları için yapılmış Haluk Levetin bu konserlerden maddi geliri olmamıştır. Haluk levent müzik hayatı sırasında iki adet deneme kitap yazmıştır. Böylesine başarılar ve hayran kitlesine sahip Haluk Levent'in en çok sevilen parçalarından Ela Gözlü şarkısının akorlarını ve gitar ritimlerini sizler için hazırladık. iyi çalışmalar

============================================================================================

Haluk Levent - Ela Gözlü Ver1

ŞARKI RİTMİ : A-YYA-YYA arpej : pima aimi

 Am        C 
Ela gözlü benli dilber
G Am
Send'olasın benim gibi
Am C
Zülfün sökük boynun bükük
G Am
Send'olasın benim gibi

Dm Am
Bahçende güller bitmesin
G Am
Kapından hekim geçmesin
Dm Am
Dalında bülbül ötmesin
G Am
Send'olasın benim gibi

Nakarat

Am Dm G Am )
Gel yanıma, sarıl bana )
Am Dm G Am ) x2
Ela gözlüm, yandım sana )

============================================================================================

Haluk Levent - Ela Gözlü Tab



Ela gözlü benli dilber Send'olasın beni gibi
e-----0-------------0----------------------------------------
b--3-----3--2--3--3----3-2----2--3--2--0--2--2--2--3--2--0---
g------------------------------------------------------------
d------------------------------------------------------------
a------------------------------------------------------------
E------------------------------------------------------------
Zülfün sökük boynun bükük Send'olasın benim gibi


e-----0-------------0----------------------------------------
b--3-----3--2--3--3----3-2-0-----2--3--2--0--2--3-2---0------
g----------------------------2----------------------2--------
d------------------------------------------------------------
a------------------------------------------------------------
E------------------------------------------------------------

Bahçende güller bitmesin Kapından hekim geçmesin

e--2--3--2--0--2--0--2-2-3--2--0---0--2--0-----0--0--2--0----
b-------------------------------------------3-------------3--
g------------------------------------------------------------
d------------------------------------------------------------
a------------------------------------------------------------
E------------------------------------------------------------

Dalında bülbül ötmesin Sende'olasın benim gibi

e--2--3--2--0--2--0--2--2--3--2--0--0--2--0-----0------------
b--------------------------------------------3----3-2---0----
g-----------------------------------------------------2------
d------------------------------------------------------------
a------------------------------------------------------------
E------------------------------------------------------------

Gel yanıma sarıl bana Ela gözlüm yandım sana
e--2--0---0--0--0--------------2--0---0--0--0----------------
b-------3---------3--2--0--0--------3----------3--2--0--0----
g------------------------------------------------------------
d------------------------------------------------------------
a------------------------------------------------------------
E------------------------------------------------------------
Genel Tekrar...
Geri
  • Yorumlar: 0
  • Görüntülenme: 21938
Değerli ziyaretçimiz, sitemize üye iseniz lütfen giriş yapınız.
Üye değilseniz üye olmak için tıklayın.


Yorum Ekle

İsim:*
E-Mail:*
Kalın İtalik Altı Çizili Üzeri Çizili | Sola Yasla Ortala Sağa Yasla | İfade Ekle Bağlantı EkleKorumalı Link Girin Renk Seç | Gizli Metin Alıntı Ekle Farklı Bir Alfabe ile Yazılmış Olan Seçili Metni Kiril Alfabesine Çevir Spoiler Ekle
Güvenlik Kodundaki 2 Kelimeyi Giriniz: *