Çevrimiçi Yerli Akorcu :)


Anket
Yerli Akor Sakinleri Hangi Burçtan ?
Koç
Boğa
İkizler
Yengeç
Aslan
Başak
Terazi
Akrep
Yay
Oğlak
Kova
Balık
SANATÇILAR..
Popüler Konular
Seçmece Akorlar
Kategori: kıraç
Endamın Yeter Akor ve Gitar Ritimleri
Kıraç Endamın Yeter Tüm Versiyonlarda Akor ve Gitar Ritimleri
Memur bir ailenin çoçuğu olan ünlü şarkıcı Kıraç ailesinin de son durağa olan İstanbul' a yerleştikten sonra müzik öğretmenliği bölüme girerek bir anlamda bu müzikal hayatında ilk parçası olmaya başladı.Kıraç bir süre sonra barlarda çalmasına rağmen daha geniş kitlelere hitap etmek amaçlı bir demo kaset hazırladı . Belirli kişiler aracılığı ile ünlü oyuncu bir süre sonra bir yapımcı şirketi ile yaptığı ilk albüm 90 lı yılların sonuna doğru büyük bir hayran kitlesinin olmuşmasına sebeb oldu. Ünlü sanatçı son zmanlarında albümlerden daha çok televizyon proramları için müzikler yapmakta . Hali hazırda devam eden belirli dizilerin müzik yapımcılığını üstlenmek olan Kıraç'ın En çok sevilen şarkılarından Endamın Yeter parçasının akor ve gitar ritimlerini sizler için hazırladık .. iyi çalışmalar...
===================================================================================================================
 
Kıraç - Endamın Yeter Ver1
ŞARKI RİTMİ : AK-YY-KY
Em Am
Endamin yeter gozlerin yeter
D G C B7 Em
Ugramasin sana ne huzun ne de keder

Em Am )
Kalbim senden senden vazgecmeyecek )
D G )
Korkma icimde askin hic bitmeyecek )
C F# )
Eger istersen bu sonsuza dek surecek )
B7 Em )
Inan bu adam hep seni seni sevecek ) A
Em Am )
Gonlum senden senden vazgecmeyecek )
D G )
Korkma icimde askin hic bitmeyecek )
C F# )
Eger istersen bu sonsuza dek surecek )
B7 Em B7 )
Inan bu adam hep seni sevecek )


Em Am D G C F# B7 Em 2 Kez

Em Am
Endamin yeter gozlerin yeter
D G C B7
Ugramasin sana ne huzun ne de keder
Em Am
Bir gun gelir gecer yuzundeki cizgiler
D G C B7
Ne askin son bulur ne icimde o dusler

A Bölümü Yeniden........
===================================================================================================================
 
Kıraç - Endamın Yeter TAB
ŞARKI RİTMİ : AK-YY-KY

e----------------------------0------------0----0-----1-----0--------------0--------------
b----------------1-----3----------------------------------------------3--------------------
g----2----2---------------------------------------------------------------------------------
d--------------------------------------------------------------------------------------------
a-------------------------------------------------------------------------------------------
e-------------------------------------------------------------------------------------------
en da mın ye ter.........
e----3----3---5----3----1---------3-----5----3----1----------1---1---1----0------0--
b------------------------------------------------------------------------------------3------
g-------------------------------------------------------------------------------------------
d-------------------------------------------------------------------------------------------
a-------------------------------------------------------------------------------------------
e-------------------------------------------------------------------------------------------
******************NARAKAT*********************
e----0---0---1----0-------0---1---0----------------------------------------------------
b-----------------------------------------3----3----1----3-------------------------------
g------------------------------------------------------------------------------------------
d------------------------------------------------------------------------------------------
a------------------------------------------------------------------------------------------
e-------------------------------------------------------------------------------------------
kal bim sen den........................
e------------0------------------0----------------------------------------------------------
b---3---3-------3---------3--------3-----1---1---0------1-----------------------------
g-------------------------------------------------------------------------------------------
d-------------------------------------------------------------------------------------------
a------------------------------------------------------------------------------------------
e------------------------------------------------------------------------------------------
Kork ma iÇim de...................
e------------------------------------------------------------------------------------------
b---1---1---3---1-----------1---3----1---0---0-------0--------------------------------
g-----------------------------------------------------2-------------------------------------
d-------------------------------------------------------------------------------------------
a-------------------------------------------------------------------------------------------
e-------------------------------------------------------------------------------------------
[ birinci dolap] parça bitince bu bölüm çalınıp nakarat başına dön
e---------------------------------------------------------0--------------------------------
b----0---0---1---0---------0---3---1---0---1---3--------------------------------------
g-------------------------------------------------------------------------------------------
d-------------------------------------------------------------------------------------------
a-------------------------------------------------------------------------------------------
e-------------------------------------------------------------------------------------------
[ikinci dolap] birinci dolabı çalmadan bu bölümle bitir
e-------------------------------------------------------------------------------------------
b----0---0---1---0-----------0---3---1---0--------------------------------------------------
g-------------------------------------------------2---1---2------------------------------------
d-------------------------------------------------------------------------------------------
a-------------------------------------------------------------------------------------------
e-------------------------------------------------------------------------------------------
******************NARAKAT*********************
Geri
  • Yorumlar: 0
  • Görüntülenme: 4440
Değerli ziyaretçimiz, sitemize üye iseniz lütfen giriş yapınız.
Üye değilseniz üye olmak için tıklayın.


Yorum Ekle

İsim:*
E-Mail:*
Kalın İtalik Altı Çizili Üzeri Çizili | Sola Yasla Ortala Sağa Yasla | İfade Ekle Bağlantı EkleKorumalı Link Girin Renk Seç | Gizli Metin Alıntı Ekle Farklı Bir Alfabe ile Yazılmış Olan Seçili Metni Kiril Alfabesine Çevir Spoiler Ekle
Güvenlik Kodundaki 2 Kelimeyi Giriniz: *