Çevrimiçi Yerli Akorcu :)


Anket
Yerli Akor Sakinleri Hangi Burçtan ?
Koç
Boğa
İkizler
Yengeç
Aslan
Başak
Terazi
Akrep
Yay
Oğlak
Kova
Balık
SANATÇILAR..
Popüler Konular
Seçmece Akorlar
Kategori: kıraç
Karahisar Kalesi Akor ve Gitar Ritimleri
Kıraç Karahisar Kalesi Tüm Versiyonlarda Akor ve Gitar Ritimleri
Memur bir ailenin çoçuğu olan ünlü şarkıcı Kıraç ailesinin de son durağa olan İstanbul' a yerleştikten sonra müzik öğretmenliği bölüme girerek bir anlamda bu müzikal hayatında ilk parçası olmaya başladı.Kıraç bir süre sonra barlarda çalmasına rağmen daha geniş kitlelere hitap etmek amaçlı bir demo kaset hazırladı . Belirli kişiler aracılığı ile ünlü oyuncu bir süre sonra bir yapımcı şirketi ile yaptığı ilk albüm 90 lı yılların sonuna doğru büyük bir hayran kitlesinin olmuşmasına sebeb oldu. Ünlü sanatçı son zmanlarında albümlerden daha çok televizyon proramları için müzikler yapmakta . Hali hazırda devam eden belirli dizilerin müzik yapımcılığını üstlenmek olan Kıraç'ın En çok sevilen şarkılarından Karahisar Kalesi parçasının akor ve gitar ritimlerini sizler için hazırladık .. iyi çalışmalar...
===================================================================================================================
 
Kıraç - Karahisar Kalesi Ver1
ŞARKI RİTMİ : AA-YY-AY
Am Em F G
Karahisar kalesi yıkılır gelir....X2

Am C G F Em F G )
Kahkülü boynuna dökülür gelir dökülür gelir......X2

Am C G F
Yayladan gel allı gelin yayladan...

Am C G F Em F G )
Kesme ümidini kadir mevladan gadir mevladan.....X2

Am C G F Em F G
ver elini karlı dağlar aşalım bayramlaşalım

Am Em F G )
Ben bir koyun olsam sende bir kuzu......X2

Am C G F Em F G )
Meeeleye meeeleye getirek yazı getirek yazı..........X 2
===================================================================================================================
 
Kıraç - Karahisar Kalesi TAB
ŞARKI RİTMİ : AA-YY-AY

e------5-5~5-5-5~5--3-1-0—-5~~
b---3-3-------------------3--- x2
e---5--3-3-3~5-3-1-3-1-0----------2~----------------
b------------------------3--3-3-0------3-1---------- x2
g------------------------------------------3-2-3-2-2~~

e------5-5~5-5-5~5--3-1-0—-5~~
b---3-3--------------------3--- x2
karahisar kalesi yıkılır gelir..
e---5--3-3-3~5-3-1-3-1-0---------2~-----------------
b------------------------3--3-3-0----3-1------------ x2
g----------------------------------------3-2-3-2-2~~
kahkülü boynuna dokulur gelır dökülür gelir
e-5--3-3-3~5-3-1-3-1-0-----0--5~~
b-----------------------3-3--1--
yayladan gel allı gelin yayladan
e-5--3-3-3~5-3-1-3-1-0------0---------------
b----------------------3-3-3--1-3-1----------
g----------------------------------3-2-3-2-2~~
kesme ümidini kadir mevladan kadir mevladan
e-5--3-3-3~5-3-1-3-1-0------0---------------
b----------------------3-3-3--1-3-1----------
g----------------------------------3-2-3-2-2~~
ver elini karlı daglar aşalım bayramlaşalım
Geri
  • Yorumlar: 1
  • Görüntülenme: 6007
Değerli ziyaretçimiz, sitemize üye iseniz lütfen giriş yapınız.
Üye değilseniz üye olmak için tıklayın.

  • 17 Aralık 2016 14:53
  • Kayıt Tarihi: --
  • ICQ:
  • Yorumları: 0
  • Konuları: 0
  • Durum:
çok güzel ama notaların kaçar adet olduklarını yazsaydınız daha iyiydi

Yorum Ekle

İsim:*
E-Mail:*
Kalın İtalik Altı Çizili Üzeri Çizili | Sola Yasla Ortala Sağa Yasla | İfade Ekle Bağlantı EkleKorumalı Link Girin Renk Seç | Gizli Metin Alıntı Ekle Farklı Bir Alfabe ile Yazılmış Olan Seçili Metni Kiril Alfabesine Çevir Spoiler Ekle
Güvenlik Kodundaki 2 Kelimeyi Giriniz: *