Çevrimiçi Yerli Akorcu :)


Anket
Yerli Akor Sakinleri Hangi Burçtan ?
Koç
Boğa
İkizler
Yengeç
Aslan
Başak
Terazi
Akrep
Yay
Oğlak
Kova
Balık
SANATÇILAR..
Popüler Konular
Seçmece Akorlar
Kategori: Ogün Sanlisoy
Ogün Sanlisoy Anma Arkadaş Akor ve Gitar Ritimleri
Ogün Sanlisoy Anma Arkadaş Tüm Versiyonlarda Akor ve Gitar Ritimleri
Arkadaş çevresiyle beraber oluşturduğu ilk müzik kayıt demoları ile müziğe adım atan Ogün Şanlısoy rock ve metal müziğe yatkınlığı sebebiyle 1992 yılında pentagram grubuna dahil olmasını sağladı. Grup ile beraber gerek yurt içi ve gerek yurt dışında konserlerde vokalist olarak çıktı. Peşi sıra Özlem Tekin'in 1994 yılında çıkardığı albümde besteci ve enstürmanist olarak yer aldı. Sanatçı ilk solo albümünü 1999 da yaptı sonraki 2004 de çıkardığı albüm ile ülke çapında büyük bir dinleyici kitlessine sahip oldu. albümdeki çoğu parçanın söz yazarlığını ve besteleciliğini yapan sanatçı bir çok üniversite tarafından en iyi rock müzik vokalisti olarak seçilme başarısı gösterdi. Son olarak 2011 de çıkardığı albümde ki bütün şarkıların kendisine ait olması başarısının yanında büyük etken olmuştur. Ogün Şanlısoy'un seslendirdiği şarkılardan Anma Arkadaş parçasının Akor ve Gitar ritimlerini sizler için hazırladık.

===================================================================================================================
===================================================================================================================


 
Ogün Sanlisoy - Anma Arkadaş Ver1


Şarkı Ritmi : AK-YY-KY


Em
Bir sevgili uğruna
Am F Em
Sen de benim gibi yanma arkadaş
Am G
O yaşlı gözlerine , o yalan sözlerine
F Dm F Em
Kanma arkadaş , Kanma arkadaş
Am
Giden gelir mi sandın , aldandın boşa yandın
G
Bırakıp gitti seni niçin ismini andın
F Dm F Em
Anma arkadaş , anma arkadaş
F Dm F Em
Yanma arkadaş , yanma arkadaş
Dm
Bir gün geri gelecek
Am
Senden af dileyecek
F Em
Sanma arkadaş
Am
Yırt at gitsin resmini ,
G
Unut artık ismini
F Dm F Em
Anma arkadaş , Anma arkadaş
Am
Giden gelir mi sandın aldandın boşa yandın
G
Bırakıp gitti seni niçin ismini andın
F Dm F Em
Anma arkadaş , anma arkadaş
F Dm F Em
Yanma arkadaş , Yanma arkadaş

===================================================================================================================
===================================================================================================================


 
Ogün Sanlisoy - Anma Arkadaş TAB


Şarkı Ritmi : AK-YY-KY

2x
------------------------------------------------------------- e
------------------------------------------------------------- b
------------------------------------------------------------- g
--22--3h4~3~4~3~4~3~4~3~4~3~4~3~4~5p~------------------------ d
------------------------------------------------------------- a
------------------------------------------------------------- e
------------------------------------------------------------- e
------------------------------------------------------------- b
----------------------------------2p~------------------------ g
--22--3h4~3~4~3~4~3~4~3~4~3~4~3~4---------------------------- d
------------------------------------------------------------- a
------------------------------------------------------------- e
2x
------------------------------------------------------------- e
------------------------------------------------------------- b
------------------------------------------------------------- g
--2223-232-------2--2---------2------------------------------ d
-----------5--555--5--5-3--333--5-33-22---3~5~--------------- a
------------------------------------------------------------- e
------------------------------------------------------------- e
------------------------------------------------------------- b
------------------------------------------------------------- g
------------------------------------------------------------- d
-----3-2-----------2----------------------------------------- a
-555-----55-3--333---5-33-1--111-5-3-11-0-0/0\0/0\0/0\0/0\0/0-e

===================================================================================================================
===================================================================================================================
Geri
  • Yorumlar: 0
  • Görüntülenme: 4215
Değerli ziyaretçimiz, sitemize üye iseniz lütfen giriş yapınız.
Üye değilseniz üye olmak için tıklayın.


Yorum Ekle

İsim:*
E-Mail:*
Kalın İtalik Altı Çizili Üzeri Çizili | Sola Yasla Ortala Sağa Yasla | İfade Ekle Bağlantı EkleKorumalı Link Girin Renk Seç | Gizli Metin Alıntı Ekle Farklı Bir Alfabe ile Yazılmış Olan Seçili Metni Kiril Alfabesine Çevir Spoiler Ekle
Güvenlik Kodundaki 2 Kelimeyi Giriniz: *