Çevrimiçi Yerli Akorcu :)


Anket
Yerli Akor Sakinleri Hangi Burçtan ?
Koç
Boğa
İkizler
Yengeç
Aslan
Başak
Terazi
Akrep
Yay
Oğlak
Kova
Balık
SANATÇILAR..
Popüler Konular
Seçmece Akorlar
Kategori: Ogün Sanlisoy
Ogün Sanlisoy Saydım Akor ve Gitar Ritimleri
Ogün Sanlisoy Saydım Tüm Versiyonlarda Akor ve Gitar Ritimleri
Arkadaş çevresiyle beraber oluşturduğu ilk müzik kayıt demoları ile müziğe adım atan Ogün Şanlısoy rock ve metal müziğe yatkınlığı sebebiyle 1992 yılında pentagram grubuna dahil olmasını sağladı. Grup ile beraber gerek yurt içi ve gerek yurt dışında konserlerde vokalist olarak çıktı. Peşi sıra Özlem Tekin'in 1994 yılında çıkardığı albümde besteci ve enstürmanist olarak yer aldı. Sanatçı ilk solo albümünü 1999 da yaptı sonraki 2004 de çıkardığı albüm ile ülke çapında büyük bir dinleyici kitlessine sahip oldu. albümdeki çoğu parçanın söz yazarlığını ve besteleciliğini yapan sanatçı bir çok üniversite tarafından en iyi rock müzik vokalisti olarak seçilme başarısı gösterdi. Son olarak 2011 de çıkardığı albümde ki bütün şarkıların kendisine ait olması başarısının yanında büyük etken olmuştur. Ogün Şanlısoy'un seslendirdiği şarkılardan Saydım parçasının Akor ve Gitar ritimlerini sizler için hazırladık.

===================================================================================================================
===================================================================================================================


 
Ogün Sanlisoy - Saydım Ver1


Şarkı Ritmi : AK-YY-KY

Am G
Geceler Boyu Sesine Uyandım
Am G
Sen Sandım Ellere Uzandım
Am G Dm
Sana Değil Kendime Kızardım Ben
Am
Sen Giderken
Am G
Aramadım Ama Elim Gitti Telefona
Am G
Soramadım Ama Kalbim Yine Yanyana
Am G Dm
Saramadım O Belinden Bir Daha
Am
Sen Giderken
Am G Am G
Saydım Kaç Gün Oldu, Saydım Kaç Gece Doldu
Am G Dm Am
Saydım Hergün Aynı , Dön,Dön İstersen
(Ben İsterken Dön)

===================================================================================================================
===================================================================================================================


 
Ogün Sanlisoy - Saydım Ver2


Şarkı Ritmi : AK-YY-KY

Em D
Geceler Boyu Sesine Uyandım
Em D
Sen Sandım Ellere Uzandım
Em D Am
Sana Değil Kendime Kızardım Ben
Sen Giderken

Em D
Aramadım Ama Elim Gitti Telefona
Em D
Soramadım Ama Kalbim Yine Yanyana
Em D Am
Saramadım O Belinden Bir Daha
Sen Giderken

Em D Em D
Saydım Kaç Gün Oldu, Saydım Kaç Gece Doldu
Em D Am
Saydım Hergün Aynı , Dön,Dön İstersen

===================================================================================================================
===================================================================================================================


 
Ogün Sanlisoy - Saydım Ver3


Şarkı Ritmi : AK-YY-KY

F#m E
Geceler Boyu Sesine Uyandım
F#m E
Sen Sandım Ellere Uzandım
F#m E Bm
Sana Değil Kendime Kızardım Ben
Sen Giderken

F#m E
Aramadım Ama Elim Gitti Telefona
F#m E
Soramadım Ama Kalbim Yine Yanyana
F#m E Bm
Saramadım O Belinden Bir Daha
Bm9
Sen Giderken

F#m E F#m E

Saydım Kaç Gün Oldu, Saydım Kaç Gece Doldu
F#m E Bm
Saydım Hergün Aynı , Dön,Dön İstersen
(Ben İsterken Dön)

===================================================================================================================
===================================================================================================================


 
Ogün Sanlisoy - Saydım TAB


Şarkı Ritmi : AK-YY-KY


INTRO :
E-----9---------7--------------
B--7-----10--9-----9--7--------
G------------------------------
D------------------------------
A------------------------------
E------------------------------

E-----9---------7--------------
B--7-----10--9-----------------
G------------------------------
D------------------------------
A------------------------------
E------------------------------

E-----9---------7---------7----
B--7-----10--9-----9--10-------
G------------------------------
D------------------------------
A------------------------------
E------------------------------

ARA GEÇİŞ

E-----------------
B--9--10--9--7----
G------------------
D-----------------
A-----------------
E-----------------

E-----9---------7--------------
B--7-----10--9-----9--7--------
G------------------------------
D------------------------------
A------------------------------
E------------------------------

E-----9---------7--------------
B--7-----10--9-----------------
G------------------------------
D------------------------------
A------------------------------
E------------------------------

E-----9---------7---------7----
B--7-----10--9-----9--10-------
G------------------------------
D------------------------------
A------------------------------
E------------------------------
Geri
  • Yorumlar: 0
  • Görüntülenme: 37979
Değerli ziyaretçimiz, sitemize üye iseniz lütfen giriş yapınız.
Üye değilseniz üye olmak için tıklayın.


Yorum Ekle

İsim:*
E-Mail:*
Kalın İtalik Altı Çizili Üzeri Çizili | Sola Yasla Ortala Sağa Yasla | İfade Ekle Bağlantı EkleKorumalı Link Girin Renk Seç | Gizli Metin Alıntı Ekle Farklı Bir Alfabe ile Yazılmış Olan Seçili Metni Kiril Alfabesine Çevir Spoiler Ekle
Güvenlik Kodundaki 2 Kelimeyi Giriniz: *