Çevrimiçi Yerli Akorcu :)


Anket
Yerli Akor Sakinleri Hangi Burçtan ?
Koç
Boğa
İkizler
Yengeç
Aslan
Başak
Terazi
Akrep
Yay
Oğlak
Kova
Balık
SANATÇILAR..
Popüler Konular
Seçmece Akorlar
Kategori: Ogün Sanlisoy
Ogün Sanlisoy Geçer Zaman Akor ve Gitar Ritimleri
Ogün Sanlisoy Geçer Zaman Tüm Versiyonlarda Akor ve Gitar Ritimleri
Arkadaş çevresiyle beraber oluşturduğu ilk müzik kayıt demoları ile müziğe adım atan Ogün Şanlısoy rock ve metal müziğe yatkınlığı sebebiyle 1992 yılında pentagram grubuna dahil olmasını sağladı. Grup ile beraber gerek yurt içi ve gerek yurt dışında konserlerde vokalist olarak çıktı. Peşi sıra Özlem Tekin'in 1994 yılında çıkardığı albümde besteci ve enstürmanist olarak yer aldı. Sanatçı ilk solo albümünü 1999 da yaptı sonraki 2004 de çıkardığı albüm ile ülke çapında büyük bir dinleyici kitlessine sahip oldu. albümdeki çoğu parçanın söz yazarlığını ve besteleciliğini yapan sanatçı bir çok üniversite tarafından en iyi rock müzik vokalisti olarak seçilme başarısı gösterdi. Son olarak 2011 de çıkardığı albümde ki bütün şarkıların kendisine ait olması başarısının yanında büyük etken olmuştur. Ogün Şanlısoy'un seslendirdiği şarkılardan Geçer Zaman parçasının Akor ve Gitar ritimlerini sizler için hazırladık.

===================================================================================================================
===================================================================================================================
 
Ogün Sanlisoy - Geçer Zaman Ver1

Şarkı Ritmi : A-YYA-YYA
Am Am
E--------------------------0------------------------------0----
B----------0----1-------------------------0----1---------------
G--------2---2----2---2-----------------2---2----2---2---------
D------2-------2----2---2-------------2-------2----2---2-------
A--0------------------------------0----------------------------
E--------------------------------------------------------------
Am Am
E--------------------------0------------------------------0----
B----------0----1-------------------------0----1---------------
G--------2---2----2---2-----------------2---2----2---2---------
D------2-------2----2---2-------------2-------2----2---2-------
A--0------------------------------0----------------------------
E--------------------------------------------------------------
Ay buluştu şarkılarla
Dm
E--------0-----1----------0----------------------------0-------
B------3---3--------3----------3-----------------0-----------0-
G----2-------2--------2----------2-------------1---1------1----
D--0-----------------------------------------2-------2------2--
A----------------------------------------2---------------------
E--------------------------------------------------------------
Hatta dans edip duruldu dalgalar

Am Dm E
Rüzgar yarıştı martılarla Aşklar bir darılıp bir barıştılar
Am E
Sen ne söylersen Söyle sevgilim
Dm E
Durduramazsın Yaşlı gözlerinle
Am Dm
Yel gibi eser geçer zaman
F E
Gülmeden geçirdiğimiz günler hep ziyan
Am Dm
Sel gibi ezer geçer hayat
F E Am
Başlar yeni güne elinde bir demet umut kalan
Am Dm E
Ayrılığı tadanlar anlar Yapraklar sarardı soldu sayfalar
Am Dm E
İlk aşk bu kış ve sonbaharlar Asla dönmeyecek harcanan yıllar
Am E
Sen ne söylersen Söyle sevgilim
Dm E
Durduramazsın Yaşlı gözlerinle
Am Dm
Yel gibi eser geçer zaman
F E
Gülmeden geçirdiğimiz günler hep ziyan
Am Dm
Sel gibi ezer geçer hayat
F E Am
Başlar yeni güne elinde bir demet umut kalan
Am Dm
Yel gibi eser geçer zaman
F E
Gülmeden geçirdiğimiz günler hep ziyan
Am Dm
Sel gibi ezer geçer hayat
F E
Bilmeden geçirdiğimiz günler hep yalan.....x3
NOT!! : Arkadaşlar şarkı başında tab okuyun arpej geçin tab bittikten sonra yurıda belirtiğimiz ritim ile
normalden bir daha yavaş olacak şekilde
çalabilirsiniz.
Geri
  • Yorumlar: 0
  • Görüntülenme: 2382
Değerli ziyaretçimiz, sitemize üye iseniz lütfen giriş yapınız.
Üye değilseniz üye olmak için tıklayın.


Yorum Ekle

İsim:*
E-Mail:*
Kalın İtalik Altı Çizili Üzeri Çizili | Sola Yasla Ortala Sağa Yasla | İfade Ekle Bağlantı EkleKorumalı Link Girin Renk Seç | Gizli Metin Alıntı Ekle Farklı Bir Alfabe ile Yazılmış Olan Seçili Metni Kiril Alfabesine Çevir Spoiler Ekle
Güvenlik Kodundaki 2 Kelimeyi Giriniz: *