Çevrimiçi Yerli Akorcu :)


Anket
Yerli Akor Sakinleri Hangi Burçtan ?
Koç
Boğa
İkizler
Yengeç
Aslan
Başak
Terazi
Akrep
Yay
Oğlak
Kova
Balık
SANATÇILAR..
Popüler Konular
Seçmece Akorlar
Kategori: Ogün Sanlisoy
Ogün Sanlisoy Hadi Beni Güldür Akor ve Gitar Ritimleri
Ogün Sanlisoy Hadi Beni Güldür Tüm Versiyonlarda Akor ve Gitar Ritimleri
Arkadaş çevresiyle beraber oluşturduğu ilk müzik kayıt demoları ile müziğe adım atan Ogün Şanlısoy rock ve metal müziğe yatkınlığı sebebiyle 1992 yılında pentagram grubuna dahil olmasını sağladı. Grup ile beraber gerek yurt içi ve gerek yurt dışında konserlerde vokalist olarak çıktı. Peşi sıra Özlem Tekin'in 1994 yılında çıkardığı albümde besteci ve enstürmanist olarak yer aldı. Sanatçı ilk solo albümünü 1999 da yaptı sonraki 2004 de çıkardığı albüm ile ülke çapında büyük bir dinleyici kitlessine sahip oldu. albümdeki çoğu parçanın söz yazarlığını ve besteleciliğini yapan sanatçı bir çok üniversite tarafından en iyi rock müzik vokalisti olarak seçilme başarısı gösterdi. Son olarak 2011 de çıkardığı albümde ki bütün şarkıların kendisine ait olması başarısının yanında büyük etken olmuştur. Ogün Şanlısoy'un seslendirdiği şarkılardan Hadi Beni Güldür parçasının Akor ve Gitar ritimlerini sizler için hazırladık.

===================================================================================================================
===================================================================================================================
 
Ogün Sanlisoy - Hadi Beni Güldür Ver1

Şarkı Ritmi : Nakarat : AA-YY-AY /// Diğer Bölümler A-aYAYA-aYAYA
Dm
Aynaya sordular güzel miyim diye
C Dm
Dedi bırak yüzünü bak şu gözlere
Dm
Eğer parıltı varsa yüreğin çarpıyorsa
C Dm
Bu dünyada senden güzel mi var
C Dm
Bu dünyada her şey güzel bi bak
C Dm
Keyfin kalmamışsa susar bu şarkılar
C Dm
Giyinip boyansan da renkler solar
C Dm
Sebebin kalmadıysa varolmak ıstırapsa
C Dm
Yüzünde maskeyle geçer yıllar
NAKARAT :
Dm
Hadi beni güldür biraz
C
Hadi beni güldür biraz
Gm F C
Daha yolumuz var daha çocuğuz inan

Dm
Hadi beni güldür biraz
C
hadi beni güldür biraz
Gm F C
Daha yolumuz var sonuna kadar dayan
Dm
Aynayı kırdılar güzel göstermiyor diye
C Dm
Bölündü parçalar çoğaldılar
Dm
Parıltı kalmadıysa yüreğin çarpmıyorsa
C Dm
Dünyadan ala cehennem mi var
C Dm
Dünyada hala cehennem mi var

C Dm
Hayat toz pembe olur sen istersen
C Dm
Ne ekersen biçersin bu gizemli bağda
C Dm
Bir yanın karanlık bir yanın aydınlık
C Dm
Işık bir yerdense şüphen mi var

===================================================================================================================
===================================================================================================================
 
Ogün Sanlisoy - Hadi Beni Güldür Ver2

Şarkı Ritmi : Nakarat : AA-YY-AY /// Diğer Bölümler A-aYAYA-aYAYA

Am
Aynaya sordular güzel miyim diye
G Am
Dedi bırak yüzünü bak su gözlere
Am G
Eger parıltı varsa, yüregin çarpıyorsa
Am
Bu dünyada senden güzel mi var
G Am
Bu dünyada hersey güzel bir bak
G Am
Keyfin kalmadıysa susar bu sarkılar
G Am
Giyinip boyansan da renkler solar
G Am
Sebebin kalmadıysa var olmak ızdırapsa
G Am
Yüzünde maskeyle geçer yıllar
Am
Hadi beni güldür biraz
G
Hadi beni güldür biraz
F C G
Daha yolumuz var daha çocuguz inan
Am
Hadi beni güldür biraz
G
Hadi beni güldür biraz
F C G
Daha yolumuz var sonuna kadar dayan
Am
Aynayı kırdılar güzel göstermiyor diye
G Am
Bölündü parçalar çogaldılar
Am G
Parıltı kalmadıysa, yüregin çarpmıyorsa
Am
Dünyadan ala cehennem mi var
G Am
Dünyada hala cehennem mi var
G Am
Hayat toz pembe olur sen istersen
G Am
Ne ekersen biçersin bu gizemli bagdan
G Am
Bir yanın karanlık bir yanın aydınlık
G Am
Isık bir yerdense süphen mi var

===================================================================================================================
===================================================================================================================
 
Ogün Sanlisoy - Hadi Beni Güldür TAB

E-----------------------------------------------------------------------|
B-------------------------------------------------10-8-----10-11-8------|
G----9-7----9-10-9-7------9-7-------9-10-9-7-7-------- 7----------------|
D--7-----7-------------5-------5----------------------------------------|
A-----------------------------------------------------------------------|
E-----------------------------------------------------------------------|

-----------------------------|
--6---6--8-------------------|
----7-------9----------------|
---------------10------------|
-----------------------------|
-----------------------------|

E-----------------------------------------------------------------------|
B--------------------------------------------------10-8-----10-11-8-----|
G-------9-7----9-10-9-7------9-7-----9-10-9-7-7---------7---------------|
D-----7-----7-------------5-------5-------------------------------------|
A-----------------------------------------------------------------------|
E-----------------------------------------------------------------------|

-----------------------------|
--6---6----5-----------------|
----7---------5--2h3p2-------|
-----------------------------|
-----------------------------|
-----------------------------|
Geri
  • Yorumlar: 0
  • Görüntülenme: 2465
Değerli ziyaretçimiz, sitemize üye iseniz lütfen giriş yapınız.
Üye değilseniz üye olmak için tıklayın.


Yorum Ekle

İsim:*
E-Mail:*
Kalın İtalik Altı Çizili Üzeri Çizili | Sola Yasla Ortala Sağa Yasla | İfade Ekle Bağlantı EkleKorumalı Link Girin Renk Seç | Gizli Metin Alıntı Ekle Farklı Bir Alfabe ile Yazılmış Olan Seçili Metni Kiril Alfabesine Çevir Spoiler Ekle
Güvenlik Kodundaki 2 Kelimeyi Giriniz: *