Çevrimiçi Yerli Akorcu :)


Anket
Yerli Akor Sakinleri Hangi Burçtan ?
Koç
Boğa
İkizler
Yengeç
Aslan
Başak
Terazi
Akrep
Yay
Oğlak
Kova
Balık
SANATÇILAR..
Popüler Konular
Seçmece Akorlar
Kategori: Pinhani
Pinhani Ben Nasıl Büyük Adam Olucam Akor ve Gitar Ritimleri
Pinhani Ben Nasıl Büyük Adam Olucam Tüm Versiyonlarda Akor ve Gitar Ritimleri
2004 yılından kurulan alternatif rock grubu o dönemde yapımda olan bir dizinin müziklerini yaparak sesini duyurmuş olan Pinhani grubu o süreçten geçtiğim yıla kadar albümleriyle ilgi odağı olmuştur. Akustik aşk şarkıları ile müzik dünyasında sevenleri ile buluşan grup hali hazırda ülkemizde bir çok yerde konserler vermiştir. Yaklaşık bir yıldır sadece flim yada dizi müzikleri ile gündeme gelmektedir. Sitemiz adına siz Pinhani severleri için en güzel parçalarından Ben Nasıl Büyük Adam Olucam Şarkısının akor ve gitar ritimlerini sizler için hazırladık iyi çalışmalar...

===================================================================================================================
===================================================================================================================

 
Pinhani - Ben Nasıl Büyük Adam Olucam Ver1

Şarkı Ritmi : AA-YY-AY

KAPO : 3

Em D Am Em
Görmezdim önümü görmezdim, okudum yıllarca hep okudum
Em D Am
Okumaktan boynumu büktüm yoruldum
Em D Am Em
Bilmezdim Adımı bilmezdim aradım her şehirde aradım
Em D Am
Koştum dere tepe aştım dolaştım
Em D D Em
Kimin uğruna, ne uğruna
Em D Am Em
Herkes köşesini kapmış iyi ama ben nasıl büyük adam olucam
Em D Am
Bir tek seni bana çok gördü dünya
Em D Am Em
İyiler bu savaşı kaybetmiş peki ben nasıl büyük adam olucam
Em D Am
Kötü olmak seni geri getirir mi acaba
Em D Am Em
Sevmezdim okulu sevmezdim, okudum yıllarca hep okudum
Em D Am
Okumaktan boynumu büktüm yoruldum
Em D Am Em
Bilmezdim oyunu bilmezdim denedim her şekilde denedim
Em D Em
Denemekle olmadı zaten yenildim
Em D D Em
Kimin uğruna, ne uğruna
NAKARAT..(tekrar)
Am Em
Ben nasıl büyük adam olucam x3

===================================================================================================================
===================================================================================================================

 
Pinhani - Ben Nasıl Büyük Adam Olucam Ver2

Şarkı Ritmi : AA-YY-AY

C G Dm Am
Görmezdim önümü görmezdim, okudum yıllarca hep okudum
C G Dm
Okumaktan boynumu büktüm yoruldum
C G Dm Am
Bilmezdim Adımı bilmezdim aradım her şehirde aradım
C G Dm
Koştum dere tepe aştım dolaştım
Am-G-Dm Am-G-Dm
Kimin uğruna, ne uğruna

C G Dm Am N
Herkes köşesini kapmış iyi ama ben nasıl büyük adam olucam A
C G Dm K
Bir tek seni bana çok gördü dünya A
C G Dm Am R
İyiler bu savaşı kaybetmiş peki ben nasıl büyük adam olucam A
C G Dm T
Kötü olmak seni geri getirir mi acaba

C G Dm Am
Sevmezdim okulu sevmezdim, okudum yıllarca hep okudum
C G Dm
Okumaktan boynumu büktüm yoruldum
C G Dm Am
Bilmezdim oyunu bilmezdim denedim her şekilde denedim
C G Dm
Denemekle olmadı zaten yenildim
Am-G-Dm Am-G-Dm
Kimin uğruna, ne uğruna

NAKARAT..(tekrar)

Dm Am
Ben nasıl büyük adam olucam x3

===================================================================================================================
===================================================================================================================

 
Pinhani - Ben Nasıl Büyük Adam Olucam Ver3

İntro..

E---02202---0202454---02202--02--
B--------------------------------
G--------------------------------
D--------------------------------
A--------------------------------
E--------------------------------

E---02202---0202454--22----------
B--------------------------------
G--------------------------------
D--------------------------------
A--------------------------------
E--------------------------------


E---444542---222--202---222420------
B-------------------------------2---
G-----------------------------------
D-----------------------------------
A-----------------------------------
E-----------------------------------
görmezdim önümü görmezdim okudum yıllarca hep okudum

E-------44---542---22202------------
B---22------------------------------
G-----------------------------------
D-----------------------------------
A-----------------------------------
E-----------------------------------
okumaktan boynumu büktüm yoruldum

E---20200----0----------------------
B----------2---4542---99-775979757--
G-----------------------------------
D-----------------------------------
A-----------------------------------
E-----------------------------------
kimin uğrunaaa ne uğrunaaaaa

E-------------------------------------
B---999(10)97--77--7775--775-7579752--
G-------------------------------------
D-------------------------------------
A-------------------------------------
E-------------------------------------
herkes köşesini kapmış iyi ama ben nasıl büyük adam olucam

E-------------------------------------
B---999(10)97----77757----------------
G-------------------------------------
D-------------------------------------
A-------------------------------------
E-------------------------------------
bir tek seni bana çok gördü dünya
Geri
  • Yorumlar: 0
  • Görüntülenme: 8953
Değerli ziyaretçimiz, sitemize üye iseniz lütfen giriş yapınız.
Üye değilseniz üye olmak için tıklayın.


Yorum Ekle

İsim:*
E-Mail:*
Kalın İtalik Altı Çizili Üzeri Çizili | Sola Yasla Ortala Sağa Yasla | İfade Ekle Bağlantı EkleKorumalı Link Girin Renk Seç | Gizli Metin Alıntı Ekle Farklı Bir Alfabe ile Yazılmış Olan Seçili Metni Kiril Alfabesine Çevir Spoiler Ekle
Güvenlik Kodundaki 2 Kelimeyi Giriniz: *