Çevrimiçi Yerli Akorcu :)


Anket
Yerli Akor Sakinleri Hangi Burçtan ?
Koç
Boğa
İkizler
Yengeç
Aslan
Başak
Terazi
Akrep
Yay
Oğlak
Kova
Balık
SANATÇILAR..
Popüler Konular
Seçmece Akorlar
Kategori: Pinhani
Pinhani Bir Anda Akor ve Gitar Ritimleri
Pinhani Bir Anda Tüm Versiyonlarda Akor ve Gitar Ritimleri
2004 yılından kurulan alternatif rock grubu o dönemde yapımda olan bir dizinin müziklerini yaparak sesini duyurmuş olan Pinhani grubu o süreçten geçtiğim yıla kadar albümleriyle ilgi odağı olmuştur. Akustik aşk şarkıları ile müzik dünyasında sevenleri ile buluşan grup hali hazırda ülkemizde bir çok yerde konserler vermiştir. Yaklaşık bir yıldır sadece flim yada dizi müzikleri ile gündeme gelmektedir. Sitemiz adına siz Pinhani severleri için en güzel parçalarından Bir Anda Şarkısının akor ve gitar ritimlerini sizler için hazırladık iyi çalışmalar...

===================================================================================================================
===================================================================================================================

 
Pinhani - Bir Anda Ver1

Şarkı Ritmi : AA-YAY // AA-YY-AA-YY


Am Em F
içimde bi şey var bu akşam
Am Em F
beyazlar karardı bir anda
Am Em F
sen orda benim çok dışımda
Am Em F
uzaklar çoğaldı bir anda
Am Em F
bir anda... bir anda... bir anda

===================================================================================================================
===================================================================================================================

 
Pinhani - Bir Anda Ver2

Şarkı Ritmi : AA-YAY // AA-YY-AA-YY

C Em Am
içimde bi şey var bu akşam
C Em Am
beyazlar karardı bir anda
C Em Am
sen orda benim çok dışımda
C Em Am
uzaklar çoğaldı bi anda
C Em Am
bi anda bi anda bi anda
C Em Am
bi anda bi anda bi anda
C Em Am
bi anda bi anda bi anda

C Em Am
emekler aş olmaz kalırsa
C Em Am
hayattan bıkarsın bi anda
C Em Am
sen orda bugün çok uzakta

===================================================================================================================
===================================================================================================================

 
Pinhani - Bir Anda TAB

e--------------------- e---------------------
B--------------------- B---------------------
G----5-4--4-5-4------- G----5-4--4-5-4-------
D--5------------5-7--- D---------------5-7---
A--------------------- A---------------------
E--------------------- E---------------------

E------------------------------------
B------------------------------------
G----5-4--4-5-4--------4-5-7-4-------
D--5------------5-7--7---------------
A------------------------------------
E------------------------------------

E-----------------------------------------
B-----------------------------------------
G----5-4--4-5-4------10-9-7---------------
D--5------------5-7---------10-9-7--------
A----------------------------------10-12--
E-----------------------------------------
Geri
  • Yorumlar: 0
  • Görüntülenme: 11005
Değerli ziyaretçimiz, sitemize üye iseniz lütfen giriş yapınız.
Üye değilseniz üye olmak için tıklayın.


Yorum Ekle

İsim:*
E-Mail:*
Kalın İtalik Altı Çizili Üzeri Çizili | Sola Yasla Ortala Sağa Yasla | İfade Ekle Bağlantı EkleKorumalı Link Girin Renk Seç | Gizli Metin Alıntı Ekle Farklı Bir Alfabe ile Yazılmış Olan Seçili Metni Kiril Alfabesine Çevir Spoiler Ekle
Güvenlik Kodundaki 2 Kelimeyi Giriniz: *