Çevrimiçi Yerli Akorcu :)


Anket
Yerli Akor Sakinleri Hangi Burçtan ?
Koç
Boğa
İkizler
Yengeç
Aslan
Başak
Terazi
Akrep
Yay
Oğlak
Kova
Balık
SANATÇILAR..
Popüler Konular
Seçmece Akorlar
Kategori: Rafet El Roman
Rafet El Roman Yalancı Şahidimdir Akor ve Gitar Ritimleri
Yalancı Şahidimdir Akor ve Gitar Ritimleri
Daha 16 yaşında söz yazarlığına başlayan ünlü sanatçı Rafet El Roman ailevi sebebler nedeniyle bir süre Almanya ' da yaşamıştır. Almanya ' da bir dönem radio kurumları tarafından yılın en iyi yeteneği ödülünü kazanmıştır.Sanatçı ilk solo albümünü 1995 de yaparken bu ülke çapında bir milyona aşkın kitleye hitap etti. Son olarak 2011 de bir albüm yapan ünlü sanatçı bu süreçte 12 kadar albüm ile karşımıza çıkmıştır. Rafet El Roman kendisine ait olan RER müzik prodüksiyon şirketi ile ülke çapında yeni sesler bulmayı amaç edinmiştir.Rafet El Roman'ın en çok sevilen şarkılarından Yalancı Şahidimdir parçasının akor ve gitar ritimlerini sizler için hazırladık.

===================================================================================================================
===================================================================================================================


 
Rafet El Roman - Yalancı Şahidimdir Ver1

Şarkı Ritmi : AA-YY-AY


Dm Am
Yalan yalan gözlerimdeki inan
Gm
Beni senden ayırır bu yürek
Dm
Ben aşkı gizlediğim gibi serden
Dm Am
Biran dalıp, kendimi unutup
Gm
Dün gibi anılarla avunup
Dm
Biraz daha kopuyorum senden


Gm Dm
Durup düşünmek yetmiyor artık
Gm
Seni istiyor her gece bu beden

Kaçıp gitsek çok uzaklara
A
Sen ve ben


Dm Am
Yalancı şahidimdir ay benim
Gm
Her gece denize vurur yakamoz
Dm
Ben aşkı senle yaşayamazsam

Varsın olmasın


Dm Am
Yalancı şahidimdir ay benim
Gm
Her gece denize vurur yakamoz
A
Ben aşkı senle yaşayamazsaaaaam
Dm
Varsın olmasın


Dm Am
Yalan değil sözlerimdeki inan
Gm
Deli, mahkum susuyor bu yürek
Dm
Ben ahımı çekiyorum derinden
Dm Am
Biran kızıp, herşeye küsüyorum
Gm
Alıp kendimi yollara vuruyor,
Dm
Biraz daha soğuyorum senden



===================================================================================================================
===================================================================================================================


 
Rafet El Roman - Yalancı Şahidimdir Ver2

Şarkı Ritmi : AA-YY-AY

Cm Gm
yalan yalan gözlerimdei inan
Fm
beni senden ayırır bu yürek
Cm
ben aşkı gizlediğim gibi senden
Cm Gm
bir an dalıp kendini unutup
Fm
gün gibi anılarla avunup
Cm
biraz daha kopuyorum senden
Fm Cm
durup düşünmek yetmiyor artık
FM7/6
seni istiyor her gece bu beden
G7
kaçıp gitsek çok uzaklara sen ve ben
Cm Gm
yalancı şahidimdir ay benim
Fm
her gece denize vurur yakamoz
Cm
ben aşkı senle yaşayamassam varsın olmasın
Cm Gm
yalancı şahidimdir ay benim
Fm
her gece denize vurur yakakoz
G7 Cm Gm7
ben aşkı senle yaşayamassam varsın olmasın


===================================================================================================================
===================================================================================================================


 
Rafet El Roman - Yalancı Şahidimdir TAB

0:00
E|-------------------|-------------|-----------------------------------|
B|-------------------|-------------|-----------------------------------|
G|--------2----------|----2--------|----------3-2-2---------------2----|
D|--0-2-3---3-2-0-3--|--0---3-0-2--|--0-2-3-5-------3-2-2---2-3-2------|
A|-------------------|-------------|-----------------------------------|
E|-------------------|-------------|-----------------------------------|
0:23
E|-------------------|-------------|-----------------------------------|
B|-------------------|-------------|-----------------------------------|
G|--------2----------|----2--------|----------3-2-2--------------------|
D|--0-2-3---3-2-0-3--|--0---3-0-2--|--0-2-3-5-------3-2-2---2h3p2-0-0--|
A|-------------------|-------------|-----------------------------------|
E|-------------------|-------------|-----------------------------------|
0:36 1:00
E|-----------------| E|-------------|
B|-----------------| B|-------------|
G|------2----------| G|--2-------2--|
D|--3-2---3-2-0-3--| D|----3-2-3----|
A|-----------------| A|-------------|
E|-----------------| E|-------------|
1:30
E|-------------------|-------------------|---------------|-------------|
B|-------------------|-------------------|---------------|-------------|
G|--------2----------|--------2----------|----2----------|--2----------|
D|--0-2-3---3-2-0-3--|--2-3-2---3-2-0-3--|--2---3-2-0-3--|----3-2-0-2--|
A|-------------------|-------------------|---------------|-------------|
E|-------------------|-------------------|---------------|-------------|
1:42
-----------------|
-----------------|
--2-----------2--|
----3-2-3-0-3----|
-----------------|
-----------------|
1:54 2:19 2:51
E|-----------------| E|----------------| E|-----------|
B|-----------------| B|----------------| B|-----------|
G|------2----------| G|--2-------2-----| G|--------2--|
D|--2-3---3-2-0-3--| D|----3-2-3----3--| D|--0-2-3----|
A|-----------------| A|----------------| A|-----------|
E|-----------------| E|----------------| E|-----------|
2:54 3:01
E|---------------------|--------------------| E|-----------------------|
B|---------------------|--------------------| B|-----------------------|
G|--------2---2--------|--3-2-3-2--2-0-2-0--| G|-----------------------|
D|--0-2-3-------3-2-0--|--------------------| D|--0-2-3—-0-2-3—-0-2-3--|
A|---------------------|--------------------| A|-----------------------|
E|---------------------|--------------------| E|-----------------------|
3:07 3:13 3:46 3:52
E|-------------------------| E|-------------| E|---------------------|----|
B|-------------------------| B|-------------| B|---------------------|--1-|
G|-------------------------| G|--2-------2--| G|--0-3-2-0-3-2-0-2-0--|--2-|
D|--0-2-3-5--0-2-3--0-2-3--| D|----3-2-3----| D|-------(5)-----------|--2-|
A|-------------------------| A|-------------| A|---------------------|--0-|
E|-------------------------| E|-------------| E|---------------------|----|

Alıntıdır...
Geri
  • Yorumlar: 0
  • Görüntülenme: 2845
Değerli ziyaretçimiz, sitemize üye iseniz lütfen giriş yapınız.
Üye değilseniz üye olmak için tıklayın.


Yorum Ekle

İsim:*
E-Mail:*
Kalın İtalik Altı Çizili Üzeri Çizili | Sola Yasla Ortala Sağa Yasla | İfade Ekle Bağlantı EkleKorumalı Link Girin Renk Seç | Gizli Metin Alıntı Ekle Farklı Bir Alfabe ile Yazılmış Olan Seçili Metni Kiril Alfabesine Çevir Spoiler Ekle
Güvenlik Kodundaki 2 Kelimeyi Giriniz: *