Çevrimiçi Yerli Akorcu :)


Anket
Yerli Akor Sakinleri Hangi Burçtan ?
Koç
Boğa
İkizler
Yengeç
Aslan
Başak
Terazi
Akrep
Yay
Oğlak
Kova
Balık
SANATÇILAR..
Popüler Konular
Seçmece Akorlar
Kategori: Sezen Aksu
Sezen Aksu Belalım Akor ve Gitar Ritimleri
Belalım Akor ve Gitar Ritimleri
Müzik hayatına 1970 yılında katıldığı ‘Altın Ses‘ yarışmasında altıncı olmasıyla başlayan ülkemizin ''minik serçe'' olarak bildiği Sezen Aksu 1975 yılında, Sezen Seley adıyla, ilk 45'liği Haydi Şansım'ı çıkardı. Bu plak Satışlarında istenilen verim alınmasada bir yıl kadar sonra kendisinin uzunca süre üst sıralarda tutacak bir 45 lik plak daha yaptı. 80 li yıllarda devlet televizyonunda şarkılarının yayınlamasıyla ülke çabında bir kaç yılı boyunca sürekli en çok satan sanatçı olarak zirvedeydi. ülke çapında turneler ve albümlerinde geri vokalistlerinden elinden tutduğu bir çok şarkıcı iyi yerlere getirme başarısını gösterdi . Ünlü sanatçı günümüze kadar 25 tane albüm yapmış 90 yıllarda çıkardığı albümü ülkede satışa sunulmada türkiye rekorunu halen elinde bulundurmakta. Oyunculuk söz yazarlığı ve besteleyici kimli olan Aksunun En çok sevilen şarkılarından Belalım parçasının akor ve gitar ritimlerini sizler için hazırladık..

===================================================================================================================
===================================================================================================================

 
Sezen Aksu - Belalım Ver1
Şarkı Ritmi : AYY-AYY-AYAY

Em G Em F Em
Uçurum uçurum gözlerine baktığım sensin
Em G Em F Em
Prangalarca boynuma takığım sensin
F Em G F Em
Dağ gölleri gibi gibi hasret çektiğim
F Em F Dm Em
Her gece uyku diye yattığım sensin

Am
Yanarım yanarım tutuşur
G
Yanarım kavurur ateşim
F Dm Em
Seni de beni de belalım

Em G Em F Em
Gün değmemiş ormanlarda yittiğim sensin
Em G Em F Em
Ömrüme ömür diye katığım sensin
F Em G F Em
Deli deli boranlarda aç denizlerde
F Em F Dm Em
Teninin tuzunu canım tattığım sensin

===================================================================================================================
===================================================================================================================

 
Sezen Aksu - Belalım Ver2
Şarkı Ritmi : AYY-AYY-AYAY

Bm Am Bm
Uçurum uçurum gözlerine baktığım sensin
Bm Am Bm
Prangalarca boynuma takığım sensin
Em Am Bm
Dağ gölleri gibi gibi hasret çektiğim
Em Bm Am Bm
Her gece uyku diye yattığım sensin

Em
Yanarım yanarım tutuşur )
Bm )
Yanarım kavurur ateşim ) A
Am Bm )
Seni de beni de belalım )

Bm Am Bm
Gün değmemiş ormanlarda yittiğim sensin
Bm Am Bm
Ömrüme ömür diye katığım sensin
Em Am Bm
Deli deli boranlarda aç denizlerde
Em Bm Am Bm
Teninin tuzunu canım tattığım sensin

TEKRAR A

Bm Am Bm
Damga damga göğsüme vurduğum sensin
Bm Am Bm
Öfke dolu şehirlerde bulduğum sensin
Em Am Bm
Yer nerede gök nerede ben neredeyim
Em Bm Am Bm
Diye diye sınırlara geldiğim sensin

TEKRAR A

===================================================================================================================
===================================================================================================================

 
Sezen Aksu - Belalım TAB

E-----------5-7-7-5---5-7-7-7-5-------ı
B-5-6-8-6-8---------8-----------6-8-5-ı
G-------------------------------------ı
D-------------------------------------ı
A-------------------------------------ı
E-------------------------------------ı


E-5-5---------------5-7-7-5-8-7-8-7-5-7-5-5-------------5-7-7-5----------ı
B-----8-6-5---5-6-8-------------------------8-6-5--5-6-8--------6-8-5----ı
G-----------7-------------------------------------7----------------------ı
D------------------------------------------------------------------------ı
A------------------------------------------------------------------------ı
E------------------------------------------------------------------------ı


E-7-8-5-7-8-5-7-8-5-5-7--5-7--5-7---5-----5-------------5-------ı
B----------------------8----8----8-8--6-8--6-6-6-5-5-6-8--6-6-5-ı
G---------------------------------------------------------------ı
D---------------------------------------------------------------ı
A---------------------------------------------------------------ı
E---------------------------------------------------------------ı
Geri
  • Yorumlar: 0
  • Görüntülenme: 7837
Değerli ziyaretçimiz, sitemize üye iseniz lütfen giriş yapınız.
Üye değilseniz üye olmak için tıklayın.


Yorum Ekle

İsim:*
E-Mail:*
Kalın İtalik Altı Çizili Üzeri Çizili | Sola Yasla Ortala Sağa Yasla | İfade Ekle Bağlantı EkleKorumalı Link Girin Renk Seç | Gizli Metin Alıntı Ekle Farklı Bir Alfabe ile Yazılmış Olan Seçili Metni Kiril Alfabesine Çevir Spoiler Ekle
Güvenlik Kodundaki 2 Kelimeyi Giriniz: *