Çevrimiçi Yerli Akorcu :)


Anket
Yerli Akor Sakinleri Hangi Burçtan ?
Koç
Boğa
İkizler
Yengeç
Aslan
Başak
Terazi
Akrep
Yay
Oğlak
Kova
Balık
SANATÇILAR..
Popüler Konular
Seçmece Akorlar
Kategori: Sezen Aksu
Sezen Aksu Sen Ağlama Akor ve Gitar Ritimleri
Sen Ağlama Akor ve Gitar Ritimleri
Müzik hayatına 1970 yılında katıldığı ‘Altın Ses‘ yarışmasında altıncı olmasıyla başlayan ülkemizin ''minik serçe'' olarak bildiği Sezen Aksu 1975 yılında, Sezen Seley adıyla, ilk 45'liği Haydi Şansım'ı çıkardı. Bu plak Satışlarında istenilen verim alınmasada bir yıl kadar sonra kendisinin uzunca süre üst sıralarda tutacak bir 45 lik plak daha yaptı. 80 li yıllarda devlet televizyonunda şarkılarının yayınlamasıyla ülke çabında bir kaç yılı boyunca sürekli en çok satan sanatçı olarak zirvedeydi. ülke çapında turneler ve albümlerinde geri vokalistlerinden elinden tutduğu bir çok şarkıcı iyi yerlere getirme başarısını gösterdi . Ünlü sanatçı günümüze kadar 25 tane albüm yapmış 90 yıllarda çıkardığı albümü ülkede satışa sunulmada türkiye rekorunu halen elinde bulundurmakta. Oyunculuk söz yazarlığı ve besteleyici kimli olan Aksunun En çok sevilen şarkılarından Sen Ağlama parçasının akor ve gitar ritimlerini sizler için hazırladık..

===================================================================================================================
===================================================================================================================

 
Sezen Aksu - Sen Ağlama Ver1
Şarkı Ritmi : A-YYA-YYA

Em
Hasret oldu ayrılık oldu
Am
Hüzünlere büründü saatler
Dm
Gördüm akan iki damla yaş
F Em
Ayrılıkta sevgiyle beraber

Em
Bir şarkı bir şiir gibi
Am
Yaşadım canım acıları
Dm
Senden bana harıra şimdi
F Dm
Sakladığım sevgili kederler

Am Dm
Bir sır gibi saklarım seni
G C
Bir yemin bir gizli düş gibi
F Dm
Ben bu yükü taşırım sen git
E Am
Git acılarla

Em
Sen ağlama dayanamam
Am
Ağlama göz bebeğim sana kıyamam
F Dm
Al yüreğim senin olsun
Fm Dm Em
Yüreğin bende kalırsa yaşayamam

===================================================================================================================
===================================================================================================================

 
Sezen Aksu - Sen Ağlama Ver2
Şarkı Ritmi : A-YYA-YYA

C#m
Hasret oldu ayrılık oldu
A F#m
Hüzünlere büründü saatler
Bm
Gördüm akan iki damla yaş
C#m
Ayrılıkta sevgiyle beraber
C#m
Bir şarkı bir şiir gibi
A F#m
Yaşadım canım acıları
Bm
Senden bana hatıra şimdi
C#m
Sakladığım sevgili kederler
F#m Bm
Bir sır gibi saklarım seni
A
Bir yemin bir gizli düş gibi
F#m Bm
Ben bu yükü taşırım sen git
A Bm-C#m
Git acılarla
C#m
Sen ağlama dayanamam
A F#m
Ağlama göz bebeğim sana kıyamam
Bm
Al yüreğim senin olsun
A Bm C#m
Yüreğin bende kalırsa yaşayamam

===================================================================================================================
===================================================================================================================

 
Sezen Aksu - Sen Ağlama TAB

E:---0-1-3-3---0-1-3-3---0-1-3-5-3-1-0--0------------------------------------
B:----------------------------------------1-6-5-3----------------------------
G:---------------------------------------------------------------------------
D:---------------------------------------------------------------------------
A:---------------------------------------------------------------------------
E:---------------------------------------------------------------------------
E:---------------------------------------------------------------------------
B:---0-1-3-3---0-1-3-3---0-1-3-5-3-1-0---------------------------------------
G:---------------------------------------1-6-5-3-1---------------------------
D:---------------------------------------------------------------------------
A:---------------------------------------------------------------------------
E:---------------------------------------------------------------------------
Geri
  • Yorumlar: 0
  • Görüntülenme: 8289
Değerli ziyaretçimiz, sitemize üye iseniz lütfen giriş yapınız.
Üye değilseniz üye olmak için tıklayın.


Yorum Ekle

İsim:*
E-Mail:*
Kalın İtalik Altı Çizili Üzeri Çizili | Sola Yasla Ortala Sağa Yasla | İfade Ekle Bağlantı EkleKorumalı Link Girin Renk Seç | Gizli Metin Alıntı Ekle Farklı Bir Alfabe ile Yazılmış Olan Seçili Metni Kiril Alfabesine Çevir Spoiler Ekle
Güvenlik Kodundaki 2 Kelimeyi Giriniz: *