Çevrimiçi Yerli Akorcu :)


Anket
Yerli Akor Sakinleri Hangi Burçtan ?
Koç
Boğa
İkizler
Yengeç
Aslan
Başak
Terazi
Akrep
Yay
Oğlak
Kova
Balık
SANATÇILAR..
Popüler Konular
Seçmece Akorlar
Kategori: Sezen Aksu
Sezen Aksu Tükeneceğiz Akor ve Gitar Ritimleri
Tükeneceğiz Akor ve Gitar Ritimleri
Müzik hayatına 1970 yılında katıldığı ‘Altın Ses‘ yarışmasında altıncı olmasıyla başlayan ülkemizin ''minik serçe'' olarak bildiği Sezen Aksu 1975 yılında, Sezen Seley adıyla, ilk 45'liği Haydi Şansım'ı çıkardı. Bu plak Satışlarında istenilen verim alınmasada bir yıl kadar sonra kendisinin uzunca süre üst sıralarda tutacak bir 45 lik plak daha yaptı. 80 li yıllarda devlet televizyonunda şarkılarının yayınlamasıyla ülke çabında bir kaç yılı boyunca sürekli en çok satan sanatçı olarak zirvedeydi. ülke çapında turneler ve albümlerinde geri vokalistlerinden elinden tutduğu bir çok şarkıcı iyi yerlere getirme başarısını gösterdi . Ünlü sanatçı günümüze kadar 25 tane albüm yapmış 90 yıllarda çıkardığı albümü ülkede satışa sunulmada türkiye rekorunu halen elinde bulundurmakta. Oyunculuk söz yazarlığı ve besteleyici kimli olan Aksunun En çok sevilen şarkılarından Tükeneceğiz parçasının akor ve gitar ritimlerini sizler için hazırladık..

===================================================================================================================
===================================================================================================================

 
Sezen Aksu - Tükeneceğiz Ver1
Şarkı Ritmi : AA-YY

Bm Em D
Ne böyle senle ne de sensiz yazik yasanmiyor çaresiz
C Am C Bm
Ne birarada ne de ayri olmak imkansiz hiç sebepsiz
Bm Em D
Ne hayallerle ümitlerle mutlu olmakti dilegimiz
C Am C Bm
Suçlu ne sensin ne de benim simdi sensizim sende bensiz
Em
Bir an gelip de küllenince
D C Am Bm
Yüreklerimiz dinlenince
Em D
Baska sevgilerde teselli bulunca
C Am Bm
Iste biz o gün düsünecegiz
Em
Etrafimizi sariverecek
C
Bir bosluk ki asla bitmeyecek
D C
Her sey bir anda anlamsiz gelecek
Em C Bm
Iste biz o gün tükenecegiz
Em C Bm
Iste biz o gün tükenecegiz


===================================================================================================================
===================================================================================================================

 
Sezen Aksu - Tükeneceğiz Ver2
Şarkı Ritmi : AA-YY

C#m B C#m
Ne böyle senle ne de sensiz
B bB dim B G#sus4 G#m
Yazık yaşanmıyor çaresiz
G#m A
Ne bir arada ne de ayrı
C#m B A G#m
Olmak imkânsız hiç sebepsiz
C#m B C#m
Ne hayallerle ümitlerle
B bB dim B G#sus4 G#m
Mutlu olmaktı dileğimiz
G#m A
Suçlu ne sensin ne de benim
C#m B A G#m
Şimdi sensizim sen de bensiz
( C#m B A C#m )
( Bir an gelip de küllenince )
( D C# D# G# )
( Yüreklerimiz dinlenince )
A ( A B ) 2
( Başka sevgilerde teselli bulunca )
( B A F#m G#m )
( İşte biz o gün düşüneceğiz )


( C#m F#m
( Etrafımızı sarıverecek
( F#m A G#m
( Bir boşluk ki asla bitmeyecek
B ( E A D F#m
( Her şey bir anda anlamsız gelecek
( C#m B A G#m
( İşte biz o gün tükeneceğiz

Tekrar A
Tekrar B

===================================================================================================================
===================================================================================================================

 
Sezen Aksu - Tükeneceğiz TAB

--------------------------------------------------------------------
-7/8---8-7-5-3-1------5/7---7-5-3-1-0-------3/5---5-3-1-0-1-3-------
--------------------------------------------------------------------
--------------------------------------------------------------------
--------------------------------------------------------------------
--------------------------------------------------------------------


--------------------------------------------------------------------
---0-1-3-5-7/8---8-7-5-3-1----5/7----7-5-3-1-0-----3/5----5-3-1-0-1-
-3------------------------------------------------------------------
--------------------------------------------------------------------
--------------------------------------------------------------------
--------------------------------------------------------------------


--------------------------------------------------------------------
-0-8-5---7--3----1-3--5---1-0-0-------------------------------------
-------------------------------------------------------------------
--------------------------------------------------------------------
--------------------------------------------------------------------
--------------------------------------------------------------------
Geri
  • Yorumlar: 1
  • Görüntülenme: 7303
Değerli ziyaretçimiz, sitemize üye iseniz lütfen giriş yapınız.
Üye değilseniz üye olmak için tıklayın.

  • 25 May 2018 15:38
  • Kayıt Tarihi: 23.05.2018
  • ICQ: 187681562
  • Yorumları: 7
  • Konuları: 0
  • Durum: Şuan Offline
Приветствую!

Вы хотите узнать подробнее о из статьи вы узнаете, как заработать деньги в интернете новичку, реален ли заработок в сети без вложений и обмана, какие сайты для заработка самые лучшие сделать запись работает по настоящее время из статьи вы узнаете, как заработать деньги в интернете новичку, реален ли заработок в сети без вложений и обмана, какие сайты для заработка самые лучшие

--------------------------
biznessobzor.ru/

Yorum Ekle

İsim:*
E-Mail:*
Kalın İtalik Altı Çizili Üzeri Çizili | Sola Yasla Ortala Sağa Yasla | İfade Ekle Bağlantı EkleKorumalı Link Girin Renk Seç | Gizli Metin Alıntı Ekle Farklı Bir Alfabe ile Yazılmış Olan Seçili Metni Kiril Alfabesine Çevir Spoiler Ekle
Güvenlik Kodundaki 2 Kelimeyi Giriniz: *