Çevrimiçi Yerli Akorcu :)


Anket
Yerli Akor Sakinleri Hangi Burçtan ?
Koç
Boğa
İkizler
Yengeç
Aslan
Başak
Terazi
Akrep
Yay
Oğlak
Kova
Balık
SANATÇILAR..
Popüler Konular
Seçmece Akorlar
Kategori: Selda Bağcan
Selda Bağcan Gesi Bağları Akor ve Gitar Ritimleri
Gesi Bağları Akor ve Gitar Ritimleri
Türk Halk Müziğinin ünlü seslerinden Selda Bağcan'ın en çok sevilen parçalarından Gesi Bağları şarkısının transpoze edilmiş halde bütün versiyonlar akor ve gitar ritimlerini sizler için hazırladık.

===================================================================================================================
===================================================================================================================

 
Selda Bağcan - Gesi Bağları Ver1
Şarkı Ritmi : A-YAYA

Em Am
Gesi baglarinda dolaniyorum
Em Am F Em
Yitirdim yarimi, aman araniyorum
Am Em Am F Em
Yitirdim yarimi, aman araniyorum

Em Am
Bir tek selamina güveniyorum
Em Am F Em
Gel otur yanima, hallarimi söyleyim
Em Am F Em
Derdimden anlamaz, ben o yari neyleyim

Em Am
Gesi baglarinda üç top gülüm var
Am Em Am F Em
Hey Allahtan korkmaz, sana bana ölüm var
Am Em Am F Em
Hey Allahtan korkmaz, sana bana ölüm var

Em Am
Ölüm varsa bu dünyada zulüm var
Am Em Am F Em
Atma anam atma,beni daglar ardina
Am Em Am F Em
Kimseler yanmasin anam yansin derdime

===================================================================================================================
===================================================================================================================

 
Selda Bağcan - Gesi Bağları Ver2
Şarkı Ritmi : A-YAYA

Am Dm
Gesi bağlarında dolanıyorum
Bb Am Bb C Bb Am
Yitirdim yarimi aman aranıyorum (X2)
Am Dm
Bir çift selamına güveniyorum
Bb Am Bb C Bb Am
Gel otur yanıma hallarımı söyleyim
Dm Am Bb C Bb Am
Halımdan bilmiyor ben o yari neyleyim
Am Dm
Gesi bağlarında üç top gülüm var
Bb Am Bb C Bb Am
Hey Allahtan korkmaz sana bana ölüm var (X2)
Dm Am
Ölüm varsa bu Dünyada zulüm var
Bb Am Bb C Bb Am
Atma garip anam beni dağlar ardına
Dm Am Bb C Bb Am
Kimseler yanmasın anam yansın derdime

===================================================================================================================
===================================================================================================================

 
Selda Bağcan - Gesi Bağları Ver3
Şarkı Ritmi : A-YAYA

Gm Cm
Gesi bağlarından dolanıyorum
Gm Gm# Gm
Yitirdim yarimi amman aranıyorum (2)
Gm Cm
Bir çift selamına güveniyorum
Gm Gm# Gm
Gel otur yanıma hallarımı söyleyim
Cm Gm Gm# Gm
Halımdan bilmiyor ben o yari neyleyim
Gm Cm
Gesi bağlarında üç top gülüm var
Gm Gm# Gm
Hey Allahtan korkmaz sana bana ölüm var (2)
Gm Cm
Ölüm var sa bu dünyada zulüm var
Gm Gm# Gm
Atma garip anam beni dağlar ardına
Cm Gm Gm# Gm
Kimseler yanmasın anam yansın derdime

===================================================================================================================
===================================================================================================================

 
Selda Bağcan - Gesi Bağları Ver4
Şarkı Ritmi : A-YAYA

Bm Em
Gesi baglarinda dolaniyorum

Em Bm Em Am Bm )
Yitirdim yarimi, aman araniyorum ) 2

Em
Bir tek selamina güveniyorum
Bm Em Am Bm
Gel otur yanima, hallarimi söyleyim
Em Bm Em Am Bm
Derdimden anlamaz, ben o yari neyleyim

Em
Gesi baglarinda üç top gülüm var

Em Bm Em Am Bm )
Hey Allahtan korkmaz, sana bana ölüm var ) 2

Em
Ölüm varsa bu dünyada zulüm var
Bm Em Am Bm
Atma garip anam, beni daglar ardina
Em Bm Em Am Bm
Kimseler yanmasin anam yansin derdime

===================================================================================================================
===================================================================================================================

 
Selda Bağcan - Gesi Bağları TAB

Gesi bağlarında dolanıyorum
e-----------------------------------------------------------------
b-----------------------------------------------------------------
g----------6-------6-6-6----6-6---------6-------------------------
d---7--9------------------------------9----9-----9-7-9------------
a-----------------------------------------------------------------
E-----------------------------------------------------------------
Yitirdim yârimi
e-----------------------------------------------------------------
b-----------------------------------------------------------------
g--------------------6----6---------------------------------------
d--7--9-9------7-9-----9-----9-7-9-7-6----------------------------
a-----------------------------------------------------------------
E-----------------------------------------------------------------
aman aranıyorum
e-----------------------------------------------------------------
b-----------------------------------------------------------------
g-----------------------------------------------------------------
d---11-11-9-7-9-7-6--9-7-6--6--------------------------------------
a-----------------------------------------------------------------
E-----------------------------------------------------------------
Geri
  • Yorumlar: 0
  • Görüntülenme: 28855
Değerli ziyaretçimiz, sitemize üye iseniz lütfen giriş yapınız.
Üye değilseniz üye olmak için tıklayın.


Yorum Ekle

İsim:*
E-Mail:*
Kalın İtalik Altı Çizili Üzeri Çizili | Sola Yasla Ortala Sağa Yasla | İfade Ekle Bağlantı EkleKorumalı Link Girin Renk Seç | Gizli Metin Alıntı Ekle Farklı Bir Alfabe ile Yazılmış Olan Seçili Metni Kiril Alfabesine Çevir Spoiler Ekle
Güvenlik Kodundaki 2 Kelimeyi Giriniz: *