Çevrimiçi Yerli Akorcu :)


Anket
Yerli Akor Sakinleri Hangi Burçtan ?
Koç
Boğa
İkizler
Yengeç
Aslan
Başak
Terazi
Akrep
Yay
Oğlak
Kova
Balık
SANATÇILAR..
Popüler Konular
Seçmece Akorlar
Kategori: Sıla
Sıla Oluruna Bırak Akor ve Gitar Ritimleri
Oluruna Bırak Akor ve Gitar Ritimleri
Müziğe ilk olarak İzmir'de lise döneminde başladı ve Türk Halk Müziği ile Türk Sanat Müziği korolarında solist olarak görev aldı. Yine lise dönemlerinde özel olarak şan eğitimi aldı . İzmir Devlet Opera ve Balesinde görev aldı . Ünlü sanatçı Kenan Doğulunun uzun bir süre geri vokal olarak görev yaptı. Seslendirmede kalitesi kadar kendisine ait parçaları bir çok ünlü kişiler tarafından seslendirildi. Sıla kendi bestelerinin kendisi gibi başkaları tarafından müzik dünyasında yer edinmiş olması isminin aylar boyunca üst seviyelerde olmasını sağladı . Yaptığı albümler de düzenlemesini yapan Sezen aksunun yaptığı bir kaç parça hariç kendisine ait olup müzisyen Efe Bahadır ile birlikte müzikseverlerin karşısına geçmiştir . Sitemiz adına Sıla' nın en çok sevilen şarkılarından Oluruna Bırak parçasının akor ve gitar ritimlerini sizler için hazırladık iyi çalışmalar ...

===================================================================================================================
===================================================================================================================
 
Sıla - Oluruna Bırak Ver1
Şarkı Ritmi : A-YYA*YAYA

Em F G F Em
Söz bitsin biz devam edelim , Sessiz kalalım yine uzlaşalım . . .
Em F G F Em
Güz bitsin biz bayram edelim , Susuz kalalım yine aç kalalım . . .
Em F G
Ayrılıklar değişmez bütün aşklar aynıdır ,
Em F G F
Hayat herkese hem iyi hem de kötü davranır => x2

Am G
Oluruna bırak her neyse geçer ,
F G F Em
Gün doğsun hele bir üzülmeye mi değer
G F Em
Üzülmeye mi değer? Oluruna bırak . . .

===================================================================================================================
===================================================================================================================
 
Sıla - Oluruna Bırak Ver2
Şarkı Ritmi : A-YYA*YAYA

F#m
Söz bitsin biz devam edelim
D Bm F#m
Sessiz kalalım yine uzlaşalım
C#m Bm
Güz bitsin biz bayram edelim
C#m Bm F#m
Susuz kalalım yine aç kalalım
C#m D C#m F#m
Ayrılıklar değişmez bütün aşklar aynıdır
C#m F#m C#m Bm
Hayat herkese hem iyi hem de kötü davranır
C#m D C#m F#m
Ayrılıklar değişmez bütün aşklar aynıdır
C#m F#m C#m Bm
Hayat herkese hem iyi hem de kötü davranır
F#m C#m
Oluruna bırak her neyse geçer
Bm C#m
Hayata zulmedip üzülmeye mi değer
D C#m
Oluruna bırak her neyse geçer
Bm C#m
Gün doğsun hele bir üzülmeye mi değer

===================================================================================================================
===================================================================================================================
 
Sıla - Oluruna Bırak Ver3
Şarkı Ritmi : A-YYA*YAYA

KAPO : 1
Bm C Bm
Söz bitsin biz devam edelim
C / D Bm
Sessiz kalalım yine uzlaşalım
Bm C
Güz bitsin biz bayram edelim
Bm C Bm
Susuz kalalım yine aç kalalım
Bm C Bm C
Ayrılıklar değişmez bütün aşklar aynıdır
Bm C Bm Am
Hayat herkese hem iyi hem de kötü davranır
Em7 Bm(7)
Oluruna bırak her neyse geçer
C Bm
Hayata zulmedip üzülmeye mi değer
Em7 Bm
Oluruna bırak her neyse geçer
C D C Bm C
Gün doğsun hele bir üzülmeye mi değer
D C Bm
Üzülmeye mi değer? Oluruna bırak

===================================================================================================================
===================================================================================================================
 
Sıla - Oluruna Bırak TAB
Şarkı Ritmi : A-YYA-YAYA

E-------------------------------------------------------------------------------------
A-------------------------------------------------------------------------------------
D------------------------------------------------------------------------------------- x2
G-----------------------------7-7----4-5-7-------------------------------7--7---------
B--8---8-7-5-7-8----7-8-7-5-5----------------8---8-7-5-7-8----7-8-7-5-5---------------
E-----------------5-----------------------------------------7-------------------------


E------------------------------------------------------------------------------------
A--------------------------------------------------------------------------------------
D-------------------------------------------------------------------------------------
G--9-7-5-5-4------------7-7--5--4---------------------------------------------------------------
B------------7-8-7--5-5-----------------------------------------------------------------------
E----------------------------------------------------------------------------------------
Geri
  • Yorumlar: 0
  • Görüntülenme: 6825
Değerli ziyaretçimiz, sitemize üye iseniz lütfen giriş yapınız.
Üye değilseniz üye olmak için tıklayın.


Yorum Ekle

İsim:*
E-Mail:*
Kalın İtalik Altı Çizili Üzeri Çizili | Sola Yasla Ortala Sağa Yasla | İfade Ekle Bağlantı EkleKorumalı Link Girin Renk Seç | Gizli Metin Alıntı Ekle Farklı Bir Alfabe ile Yazılmış Olan Seçili Metni Kiril Alfabesine Çevir Spoiler Ekle
Güvenlik Kodundaki 2 Kelimeyi Giriniz: *