Çevrimiçi Yerli Akorcu :)


Anket
Yerli Akor Sakinleri Hangi Burçtan ?
Koç
Boğa
İkizler
Yengeç
Aslan
Başak
Terazi
Akrep
Yay
Oğlak
Kova
Balık
SANATÇILAR..
Popüler Konular
Seçmece Akorlar
Kategori: Volkan Konak
Volkan Konak Hastahane Önünde İncir Ağacı Akor ve Gitar Ritimleri
Hastahane Önünde İncir Ağacı Akor ve Gitar Ritimleri
Türk halk müziği sanatçısı samimi, cana yakın tavrıyla bulunduğu konser ve yaptığı Tv müzik programlarında dikkat çeken ünlü şarkıcı Volkan Konak ülkemizde karadeniz müziğinin en güzel yansıtan yüzlerden birisidir. Programlarında sevecenliğini bi kenara bırakıp hüzünlü aşk şiirlerini de yer veren şarkıcı hayranlarının acı ve hüzünlerinede nufüs etmektedir. Volkan Konak ülkemizde kuzeyin oğlu ismi ile anılmaktadır.Sanatçı müzik hayatına 1987 yılında Maçka yöresinde yaptığı derleme çalışmalarını topladığı “Suların Horon Yeri” adlı müzik albümüyle başladı. Daha sonraları beste çalışmalarına başladı. Nazım Hikmet, gibi değerli şairlerin eserlerini besteleyerek müziğini, tarzını belirlemiş oldu.Değerli karadeniz sanatçısı Volkan Konak'ın en çok sevilen parçalarından Hastahane Önünde İncir Ağacı şarkısının gitar akor , ritim ve tabını sizler için hazırladık.
===================================================================================================================
===================================================================================================================
 
Volkan Konak - Hastahane Önünde İncir Ağacı Ver1
Şarkı Ritmi : A-YY-AY
Am C Gm Am C Gm Am
Hastane önünde incir ağacı,anam ağacı
Dm Am C Gm Bb Gm Am
Doktor bulamadı bana ilacı,anam ilacı
Am C Gm Am C Gm Am
Baştabip geliyor zehirden acı,anam vay acı
Dm Am C Gm Bb Gm Am
Garip kaldım yüreğime dert oldu,anam dert oldu
Dm Am C Gm Bb Gm Am
Ellerin vatanı bana yurt oldu,anam yurt oldu
Am C Gm Am C Gm Am
Mezarımı kazın bayıra düze,anam vay düze
Dm Am C Gm Bb Gm Am
Yönünü çevirin sıladan yüze,anam vay yüze
Am C Gm Am C Gm Am
Benden selam söyle sevdiğimize,sevdiğimize
Dm Am C Gm Bb Gm Am
Başına koysun karalar bağlasın,anam bağlasın
Dm Am C Gm Bb Gm Am
Gurbet elde kaldım diye ağlasın,anam ağlasın
===================================================================================================================
===================================================================================================================
 
Volkan Konak - Hastahane Önünde İncir Ağacı Ver2
Şarkı Ritmi : A-YY-AY
Em G Dm Em G Dm Em
Hastane önünde incir ağacı,anam ağacı
Am Em G DmF DmEm
Doktor bulamadı bana ilacı,anam ilacı
Em G Dm Em G Dm Em
Baştabip geliyor zehirden acı,anam vay acı
Am Em G DmF Dm Em
Garip kaldım yüreğime dert oldu,anam dert oldu
Am Em G Dm F Dm Em
Ellerin vatanı bana yurt oldu,anam yurt oldu
Em G Dm EmG Dm Em
Mezarımı kazın bayıra düze,anam vay düze
Am Em G Dm F Dm Em
Yönünü çevirin sıladan yüze,anam vay yüze
Em G Dm EmG Dm Em
Benden selam söyle sevdiğimize,sevdiğimize
Am Em G DmF Dm Em
Başına koysun karalar bağlasın,anam bağlasın
Am Em G DmF Dm Em
Gurbet elde kaldım diye ağlasın,anam ağlasın
===================================================================================================================
===================================================================================================================
 
Volkan Konak - Hastahane Önünde İncir Ağacı TAB
Şarkı Ritmi : A-YY-AY
Dm*
E |-------|----------------|----------------------------|
B |-------|-----------5----|--6-----5--6--6--5--6--5----|
G |-------|-----5--7-------|--7-------------------------|
D |-------|----------------|--7--7----------------------|
A |-------|----------------|--5-------------------------|
E |-------|----------------|----------------------------|
Am* C Gm
----------------------------|----------------------------|
--5-----5-----5-----5-------|--1-----1-------------------|
--5--------7-----7----------|--0-----------3-------------|
--7--7----------------------|--2--2-----2--5--7--5-------|
--7-------------------------|--3-----------5--------5----|
----------------------------|--------------3-------------|
Gm Am*
----------------------------|--------------5-------------|
----------------------------|-----------------8--6--5----|
--------3--5s-3-------------|--------5-------------------|
-----3-----------7--5-------|-----7-----7----------------|
--0--------------------5----|----------------------------|
--------------3-------------|--5-------------------------|
Dm* Am
----------------------------|----------------------------|
--6-----5--6--6--5--6--5----|--5-----5-----5-----5-------|
--7-------------------------|--5--------7-----7----------|
--7--7----------------------|--7--7----------------------|
--5-------------------------|--7-------------------------|
----------------------------|----------------------------|
C Gm
----------------------------|
--1-----1-------------------|
--0-----------3-------------|
--2--2-----2--5--7--5-------|
--3-----------5--------5----|
--------------3-------------|
Geri
  • Yorumlar: 0
  • Görüntülenme: 5924
Değerli ziyaretçimiz, sitemize üye iseniz lütfen giriş yapınız.
Üye değilseniz üye olmak için tıklayın.


Yorum Ekle

İsim:*
E-Mail:*
Kalın İtalik Altı Çizili Üzeri Çizili | Sola Yasla Ortala Sağa Yasla | İfade Ekle Bağlantı EkleKorumalı Link Girin Renk Seç | Gizli Metin Alıntı Ekle Farklı Bir Alfabe ile Yazılmış Olan Seçili Metni Kiril Alfabesine Çevir Spoiler Ekle
Güvenlik Kodundaki 2 Kelimeyi Giriniz: *