Çevrimiçi Yerli Akorcu :)


Anket
Yerli Akor Sakinleri Hangi Burçtan ?
Koç
Boğa
İkizler
Yengeç
Aslan
Başak
Terazi
Akrep
Yay
Oğlak
Kova
Balık
SANATÇILAR..
Popüler Konular
Seçmece Akorlar
Kategori: Yalın
Yalın Alışmak Zorundayım Akor ve Gitar Ritimleri
Alışmak Zorundayım Akor ve Gitar Ritimleri
Türk pop müzik sarkıcısı ,söz yazarı besteci kimliği ile ülkemizde 2004 yılında zalim şarkısı ile çıkış yakalayan Yalın bu albümü ile ülkede daha 1 ayın sonunda en çok satanlar arasına girdi .. ülke çapındada internet üzerinden de 2 milyona aşkın kişi ile buluşan albüm Yalın 'a ülkemizde ki ünlü bir müzik ödülünde en iyi çıkış yapan sanatçı armağanını kazandırdı .. Bir sonraki albümündede yine büyük bir ivme ile başarısını devam ettirdi. Günümüze kadar 7 albüm yapan sanatçı her albümünde ülkeye damgasını vurmuş bir kaç parça ile karşımıza çıkmış ve bu şarkılar ve albümler üzerinden yalına müzik yarışmalarında büyük ödüller kazandırmıştır.Sitemiz adına sizler için Yalın'ın en çok sevilen parçalarından Alışmak Zorundayım şarkısını gitar akor tab ve ritimlerini sizler için hazırladık.

===================================================================================================================
===================================================================================================================
 
Yalın - Alışmak Zorundayım Ver1
Şarkı Arpeji : Pimaimai
C
Dün hayat durdu benim için
Em F G
Sanki bugün herşey farklı
C
Sanki bu ev benim değil
F G
Bu nefes bana zararlı
C F G
Alışmaya çalışmak diye birşey yoook
Alışmak zorundayım
C F G
Üzülmemek diye birşey yoook
Üzülmem gerek
Am
Severek unutmak olur iş mi
Em F G
Bilerek uçuruma önden atlanır mı ki
Am Em
Kaybettiğinin yerine ne koysan dolmaz
F G C
Boş bırakacağım yerini hep bomboş
Sevgilerle...

===================================================================================================================
===================================================================================================================
 
Yalın - Alışmak Zorundayım Ver2
Şarkı Arpeji : Pimaimai

D
Dün hayat durdu benim için
F#m G A
Sanki bugün herşey farklı
D
Sanki bu ev benim değil
G A
Bu nefes bana zararlı
D G A
Alışmaya çalışmak diye birşey yoook
F#m
Alışmak zorundayım
D G A
Üzülmemek diye birşey yoook
F#m G
Üzülmem gerek
Bm
Severek unutmak olur iş mi
F#m G A
Bilerek uçuruma önden atlanır mı ki
Bm F#m
Kaybettiğinin yerine ne koysan dolmaz
G A D
Boş bırakacağım yerini hep bomboş

===================================================================================================================
===================================================================================================================
 
Yalın - Alışmak Zorundayım TAB
Şarkı Arpeji : Pimaimai

Am-------------Em---------------------F---------------Em---
E|----------0----------------0-----------------------------
B|1-0---0-1----0-------0---0---0--1-0-----------0-1-3-0----
G|----2----------2-0-2---2------------2-0---0-2---------2-0
D|----------------------------------------3----------------
--------Am------Em-------------F--------------Em
E|0-----0-----3-353-1-0--1-3-5-7-5-3-5-3-1-0-1-3
B|--3-1---3-1-----------------------------------
G|----------------------------------------------
D|----------------------------------------------
--------------------Am-------Em------------F-----------------Em-------
E|0-1-3-5-7-8-7-5-7-8-7-8-10-12-7-5-3-5-77-3-5-3-1-0-1-2-3-5-3-1-0-1-0
B|--------------------------------------------------------------------
G|--------------------------------------------------------------------
D|--------------------------------------------------------------------
--Am--------------Em--------F---------------Em---------
E|0-----0-----3-1-0------------------------------------
B|--3-1---3-1-------3-1-3-0---0-1-0-------------1-0----
G|--------------------------2-------2-2-0-2-0-2-----2-0
D|-----------------------------------------------------

===================================================================================================================
===================================================================================================================
Geri
  • Yorumlar: 0
  • Görüntülenme: 2296
Değerli ziyaretçimiz, sitemize üye iseniz lütfen giriş yapınız.
Üye değilseniz üye olmak için tıklayın.


Yorum Ekle

İsim:*
E-Mail:*
Kalın İtalik Altı Çizili Üzeri Çizili | Sola Yasla Ortala Sağa Yasla | İfade Ekle Bağlantı EkleKorumalı Link Girin Renk Seç | Gizli Metin Alıntı Ekle Farklı Bir Alfabe ile Yazılmış Olan Seçili Metni Kiril Alfabesine Çevir Spoiler Ekle
Güvenlik Kodundaki 2 Kelimeyi Giriniz: *