Çevrimiçi Yerli Akorcu :)


Anket
Yerli Akor Sakinleri Hangi Burçtan ?
Koç
Boğa
İkizler
Yengeç
Aslan
Başak
Terazi
Akrep
Yay
Oğlak
Kova
Balık
SANATÇILAR..
Popüler Konular
Seçmece Akorlar
Kategori: Oğuzhan Koç
Oğuzhan Koç Domuz Gribi Tüm Versiyonlarda Akor ve Gitar Ritimleri
Domuz Gribi Tüm Versiyonlarda Akor ve Gitar Ritimleri
Hem oyunculuk anlamında hemde müzik dünyasında son bir yılda sesin duyurmayı başaran Oğuzhan koç son yaptığı albüm ile hayran kitlesinden büyük bir destek aldığını söylebiliriz. Komedyen kişiliğini şarkılarında da yansıtmayı amaç edinmiş olan başarılı oyuncu ve şarkıcı Oğuzhan Koç 'un son albümden Domuz Gribi şarkısının tüm versiyonlarda akor ve gitar ritimlerini sizler için hazırladık.

==================================================================================================================
 Oğuzhan Koç - Domuz Gribi Ver1 
ŞARKI RİTMİ : AK-YY-KY

Am
Beni sen nasıl terkettin
Em
Bırakıp gittin
F
Çok ayıp ettin eyvallah
G
Şimdi halsizliğin tutsun
Dm
Motorun bozulsun
Dm Em
Domuz gribi ol inşallah.

==================================================================================================================
 Oğuzhan Koç - Domuz Gribi Ver2 
ŞARKI RİTMİ : AK-YY-KY

Bm
Beni sen nasıl terkettin
F#m
Bırakıp gittin
G
Çok ayıp ettin eyvallah
A
Şimdi halsizliğin tutsun
G
Motorun bozulsun
A G A G F#m
Domuz gribi ol inşallah

==================================================================================================================
 Oğuzhan Koç - Domuz Gribi TAB 
ŞARKI RİTMİ : AK-YY-KY

e|--0-2-3-4-3-2-0-0--2-3-2-0--------0-2-0----------0-|
B|-0-------------3----------3-1-3--------3-1-0--1-3--|
G|---------------------------------------------------|
D|---------------------------------------------------|
A|---------------------------------------------------|
E|---------------------------------------------------|
e|--0-2-3-2-0-------0-2-0--------2-3-0-0-2-----------|
B|-3---------3-1-3-------3-1-0------------3--3-1-0---|
G|---------------------------------------------------|
D|---------------------------------------------------|
A|---------------------------------------------------|
E|---------------------------------------------------|
Geri
  • Yorumlar: 0
  • Görüntülenme: 5107
Değerli ziyaretçimiz, sitemize üye iseniz lütfen giriş yapınız.
Üye değilseniz üye olmak için tıklayın.


Yorum Ekle

İsim:*
E-Mail:*
Kalın İtalik Altı Çizili Üzeri Çizili | Sola Yasla Ortala Sağa Yasla | İfade Ekle Bağlantı EkleKorumalı Link Girin Renk Seç | Gizli Metin Alıntı Ekle Farklı Bir Alfabe ile Yazılmış Olan Seçili Metni Kiril Alfabesine Çevir Spoiler Ekle
Güvenlik Kodundaki 2 Kelimeyi Giriniz: *