Çevrimiçi Yerli Akorcu :)


Anket
Yerli Akor Sakinleri Hangi Burçtan ?
Koç
Boğa
İkizler
Yengeç
Aslan
Başak
Terazi
Akrep
Yay
Oğlak
Kova
Balık
SANATÇILAR..
Popüler Konular
Seçmece Akorlar
Kategori: Oğuzhan Koç
Oğuzhan Koç Gül ki Sevgilim Tüm Versiyonlarda Akor ve Gitar Ritimleri
Gül ki Sevgilim Tüm Versiyonlarda Akor ve Gitar Ritimleri
Hem oyunculuk anlamında hemde müzik dünyasında son bir yılda sesin duyurmayı başaran Oğuzhan koç son yaptığı albüm ile hayran kitlesinden büyük bir destek aldığını söylebiliriz. Komedyen kişiliğini şarkılarında da yansıtmayı amaç edinmiş olan başarılı oyuncu ve şarkıcı Oğuzhan Koç 'un son albümden Gül ki Sevgilim şarkısının tüm versiyonlarda akor ve gitar ritimlerini sizler için hazırladık.

==================================================================================================================
 Oğuzhan Koç - Gül ki Sevgilim Ver1 
ŞARKI RİTMİ : AK-YY-KY

A E
Bu sabah yerini kimler almış
D E
Diye düşündüm kalktığımda
F#m C#m D E
Hiçbiri seni hiçbiri beni hiçbiri bizi anlamamış
A E
Bu sabah telefonu hiç açmadım
D E
Çaldı durdu aldırmadım
F#m C#m
Hiçbirşey seni seni düşünmemi
D E
Engellemez ben anladım
A E
Bu sabah
A
Gül ki sevgilim )
E
Gül ki gözlerin )
D E
Solmasın sakın aşk çiçeğim ) A
F#m
Gel biraz bana )
C#m
Gel biraz daha )
D E
Arşa çıksın nağmelerim )
A E
Bu sabah adını boş kağıtlara
D E
Yazdım astım duvarlara
F#m
Ben birtek seni
C#m
Eski günleri
D E
İstedim canım anlasana
A E
Bu sabah yatağın boş kısmını
D E
Resimlerinle süsledim
F#m
Gördün halimi
C#m
Anla derdimi
D
Ne olur dön
E
Çok özledim
A E
Bu sabah

==================================================================================================================
 Oğuzhan Koç - Gül ki Sevgilim Ver2 
ŞARKI RİTMİ : AK-YY-KY

C G
Bu sabah yerini kimler almış
F G
İyi düşündüm kalktığımda
Am G
Hiçbiri seni hiçbiri beni
F G
Hiçbiri bizi anlamamış
C G
Bu sabah telefonu hiç açmadım
F G
Çaldı durdu aldırmadım
Am G
Hiçbişey seni seni düşünmemi
F G C
Engellemez ben anladım bu sabah
C G
Gülki sevgilim gülki gözlerin
F G
Solmasın sakın aşk çiçeğim
Am G
Gel biraz bana gel biraz daha
F G
Arşa çıksın namelerim
C G
Bu sabah adını boş kağıtlara
F G
Yazdım astım duvarlara
Am G
Ben bir tek seni eski günleri
F G
İstedim canım anlasana
C G
Bu sabah yatağın boş kısmını
F G
Resimlerinle süsledim
Am G
Gördün halimi anla derdimi
F G C
Ne olur dön çok özledim bu sabah

==================================================================================================================
 Oğuzhan Koç - Gül ki Sevgilim Ver3 
ŞARKI RİTMİ : AK-YY-KY

G D
Bu sabah yerini kimler almiş
C D
Diye düşündüm kalktiğimda
Em D C D
Hiçbiri seni hiçbiri beni hiçbiri bizi anlamamiş
G D
Bu sabah telefonu hiç açmadim
C D
Çaldi durdu aldirmadim
Em D
Hiçbişey seni, seni düşünmemi
C D
Engellemez ben anladim
G
Bu sabah
G
Gülki sevgilim )
D
Gülki gözlerin )
C D
Solmasin sakin aşk çiçeğim ) x2
Em
Gel biraz bana )
D
Gel biraz daha )
C D
Arşa çiksin namelerim )

G D
Bu sabah adini boş kağitlara
C D
Yazdim astim duvarlara
Em
Ben birtek seni
D
Eski günleri
C D
Istedim canim anlasana
G D
Bu sabah yatağin boş kismini
C D
Resimlerinle süsledim
Em
Gördün halimi
D
Anla derdimi
C
Ne olur dön
D
Çok özledim
G
Bu sabah

G
Gülki sevgilim )
D
Gülki gözlerin )
C D
Solmasin sakin aşk çiçeğim ) x2
Em
Gel biraz bana )
D
Gel biraz daha )
C D
Arşa çiksin namelerim )
G
Hadi gel

==================================================================================================================
 Oğuzhan Koç - Gül ki Sevgilim TAB 
ŞARKI RİTMİ : AK-YY-KY

E|---------------------------------------------|
B|---------------------------------------------|
G|--------------7-------------9--9--9-11-9-----|
D|----7--9--11-------11--9---------------------|
A|---------------------------------------------|
E|---------------------------------------------|


E|----------------------9-10-9---------------------------|
B|----7-9--10----9--7-----------12--10--9----------------|
G|-7---------------------------------------11--9----9s11-|
D|-------------------------------------------------------|
A|-------------------------------------------------------|
E|-------------------------------------------------------|


E|----------------------------------------------|
B|----------------------------------------------|
G|--9h11-9h11-9h11-9h11-9h11-9h11-9h11-9h11-9h11|
D|----------------------------------------------|
A|----------------------------------------------|
E|----------------------------------------------|


E|------------------------------------------------------|
B|------------------------------------------------------|
G|----9-------------------------------------------------|
D|-------12-12----9-11-12-11---9-------9----------------|
A|---------------------------------12-----12------------|
E|------------------------------------------------------| X3


E|--------------------------------------|
B|--10---9------------------------------|
G|-----------11---9---------------------|
D|--------------------12---11---9-------|
A|0----0---0----0---0----0----0---0--12-|
E|--------------------------------------|
Geri
  • Yorumlar: 0
  • Görüntülenme: 13591
Değerli ziyaretçimiz, sitemize üye iseniz lütfen giriş yapınız.
Üye değilseniz üye olmak için tıklayın.


Yorum Ekle

İsim:*
E-Mail:*
Kalın İtalik Altı Çizili Üzeri Çizili | Sola Yasla Ortala Sağa Yasla | İfade Ekle Bağlantı EkleKorumalı Link Girin Renk Seç | Gizli Metin Alıntı Ekle Farklı Bir Alfabe ile Yazılmış Olan Seçili Metni Kiril Alfabesine Çevir Spoiler Ekle
Güvenlik Kodundaki 2 Kelimeyi Giriniz: *