Çevrimiçi Yerli Akorcu :)


Anket
Yerli Akor Sakinleri Hangi Burçtan ?
Koç
Boğa
İkizler
Yengeç
Aslan
Başak
Terazi
Akrep
Yay
Oğlak
Kova
Balık
SANATÇILAR..
Popüler Konular
Seçmece Akorlar
Kategori: Bilgilendirme
Pera Sensiz Ben Akor ve Gitar Ritimleri
Pera - Sensiz Ben Am          G              Dm      F
Ne kağıt kalemsiz olmayı bilir ne de ben sensiz kalmayı
Am G Dm F Dm
Neden bir dert biter diğeri gelir ateştir bu iyi bilir yakmayı

==================================================================================================================
Pera - Sensiz Ben 
ŞARKI RİTMİ : AA-YY-AY ya da AK-YY-KY

Am G Dm F
Ne kağıt kalemsiz olmayı bilir ne de ben sensiz kalmayı
Am G Dm F Dm
Neden bir dert biter diğeri gelir ateştir bu iyi bilir yakmayı
Dm G Am Em F
Kuşları anladım da senin kanatların yok nasıl uçtun da gittin
F G Am Em(G)
Kırık cam misali hatalarım acıtır seni böyle mi kaybettim
Am Em F G Em
Bul beni kaybolmuşum izim silinmiş dilim suskun susmuşum
Am Em F G Em
Bak bana mahvolmuşum senden kendimi almayı unutmuşum
Am Em F G Em
Bul beni kaybolmuşum gecem günüme karışmış bir hoşum
Am Em F G Em
Sanma ki sarhoşum ne var ne yoksa yıkıldı içimde bomboşum

Am Em Dm F
Ne gün güneşe doymayı bilir ne de ben sana bakmayı
Am Em Dm F
Uyutsun gece beni sevmesem de sensiz hayaller kurmayı
F G Am G
Dikenleri anladım da senin çiçeklerin vardı nasıl soldun da gittin
F G Am G
Fırtınam oldun yıkıldım ben söyle seni böyle mi kaybettim

==================================================================================================================
Pera - Sensiz Ben TAB 
ŞARKI RİTMİ : AA-YY-AY ya da AK-YY-KY

E----------------------------------------------------
B----------------------------------------------------
G---5-5-4-5-4-5--4-----------------------------------
D------------------5--5--7/9-7------3-5/7-5-----5-7-9
A----------------------------------------------------
E----------------------------------------------------
E------------------------------------------------------
B------------------------------------------------------
G---5-5-4-5-4-5--4-------------------------------------
D------------------5--5-7/9-7---3--3-5/7-5-----5-7-9---
A------------------------------------------------------
E------------------------------------------------------
E-------------------------------------------------------
B-------------------------------------------------------
G---5-5-4-5-4-5--4--------------------------------------
D------------------5--5-7/9-7---3--3-5/7-5-----3-2-3/5-2
A-------------------------------------------------------
E-------------------------------------------------------
Geri
  • Yorumlar: 1
  • Görüntülenme: 28027
Değerli ziyaretçimiz, sitemize üye iseniz lütfen giriş yapınız.
Üye değilseniz üye olmak için tıklayın.

emir
#1
  • 17 May 2015 14:15
  • Kayıt Tarihi: --
  • ICQ:
  • Yorumları: 0
  • Konuları: 0
  • Durum:
ritim ne a yı sormuyorum yukarı aşağı sustur ne

Yorum Ekle

İsim:*
E-Mail:*
Kalın İtalik Altı Çizili Üzeri Çizili | Sola Yasla Ortala Sağa Yasla | İfade Ekle Bağlantı EkleKorumalı Link Girin Renk Seç | Gizli Metin Alıntı Ekle Farklı Bir Alfabe ile Yazılmış Olan Seçili Metni Kiril Alfabesine Çevir Spoiler Ekle
Güvenlik Kodundaki 2 Kelimeyi Giriniz: *