Çevrimiçi Yerli Akorcu :)


Anket
Yerli Akor Sakinleri Hangi Burçtan ?
Koç
Boğa
İkizler
Yengeç
Aslan
Başak
Terazi
Akrep
Yay
Oğlak
Kova
Balık
SANATÇILAR..
Popüler Konular
Seçmece Akorlar
Kategori: Kolpa
Kolpa Böyle Ayrılık Olmaz Gitar Akorları ve Altenatif Ritimler

Kolpa - Böyle  Ayrılık Olmaz 

==================================================================================================================
Kolpa Böyle Ayrılık Olmaz Ver1 
ŞARKI RİTMİ :AK-YY-KY (Nakarat) , Şarkı Arpeji : pp-imp

F#m Bm Em F#m
Kim derdi ki seninle birgün ayrılacağız
F#m G Em F#m
Geçip giden yılların ardından bakacağız
F#m Bm Em F#m
Kim derdi ki birtanem gün gelip bıkacağız
F#m G Em F#m
Ben ve yenik yüreğim yalnız mı kalacağız
F#m sus. Geçiş F#m
Böyle ayrılık olmaz böyle yalnız kalınmaz
Bm G A
Hani verdiğin sözler hani ellerin nerde
A(F#m) G
Hani huzur bulduğum deniz gözlerin nerde
Em A G Em F#m
Hani sen hep benimdin şimdi nerdesin nerde

Bm-A-G 2x
F#m Bm Em F#m
Kim derdi ki seninle birgün ayrılacağız
F#m G Em F#m
Geçip giden yılların ardından bakacağız
F#m Bm Em F#m
Kim derdi ki birtanem gün gelip bıkacağız
F#m G Em F#m
Ben ve yenik yüreğim yalnız mı kalacağız
F#m sus. Geçiş F#m
Böyle ayrılık olmaz böyle yalnız kalınmaz
Bm G A
Hani verdiğin sözler hani ellerin nerde
A(F#m) G
Hani huzur bulduğum deniz gözlerin nerde
Em A G Em F#m
Hani sen hep benimdin şimdi nerdesin nerde

==================================================================================================================
Kolpa Böyle Ayrılık Olmaz Ver2 
ŞARKI RİTMİ :AK-YY-KY (Nakarat) , Şarkı Arpeji : pp-imp


Em Am F G
Kim derdi ki seninle birgün ayrilacagiz
G F Dm Em
Geçip giden yillarin ardindan bakacagiz
Em Am F G
Kim derdi ki bir tanem gün gelip bikacagiz
G F Dm Em
Ben ve yenik yüregim yalniz mi kalacagiz

Ara Geçiş:Em-F-G-F-Em

Em Em )
Böyle ayrilik olmaz böyle yalniz kalinmaz ) 2

Am F )
Hani verdigin sözler hani ellerin nerde )
G G F )
Hani huzur buldugum deniz gözlerin nerde ) 2
F G F Dm-F-Em )
Hani sen hep benimdin simdi nerdesin nerde )

TEKRAR

==================================================================================================================
Kolpa Böyle Ayrılık Olmaz TAB 

e-0-----0-1-0-------------0------------------------------------------------
B---1-3-------3---3---1--3---3-1---1------1-3-1--------------1-------------
G-------------------3----------------2-3--------3---3-0-2--3-----3-2-------
D--------------------------------------------------------------------------
A--------------------------------------------------------------------------
E--------------------------------------------------------------------------
Kim derdi ki seninle bir gün ayrılacağız..Geçip giden yılların ardından bakacağız..

e-0-----0-1-0-------------0------------------------------------------------
B---1-3-------3---3---1--3---3-1---1------1-3-1--------------1-------------
G-------------------3----------------2-3--------3---3-0-2--3-----3-2-------
D--------------------------------------------------------------------------
A--------------------------------------------------------------------------
E--------------------------------------------------------------------------
Kim derdi ki birtanem gün gelip bıkacağız...Ben ve yenik yüreğim yalnız mı kalacağız...

Nakarat :

e--5-5-5-5-6-3-5--5---3---1---3--5---0--1--0--5---3s1---0------------------
B--------------------------------------------------------------------------
G--------------------------------------------------------------------------
D--------------------------------------------------------------------------
A--------------------------------------------------------------------------
E--------------------------------------------------------------------------
Böyle ayrılık olmaz aaaaa böyle yalnız kalınmaz.....

e--1-1-1-0-0-1-----1-1-1-0----0---0-0-0-0---0----0-0-0---------------------
B--------------3------------3---1---------3---1--------3-1--3--------------
G-------------------------------------------------------------3------------
D--------------------------------------------------------------------------
A--------------------------------------------------------------------------
E--------------------------------------------------------------------------
Hani verdiğin sözler hani ellerin nerde....Hani huzur bulduğum deniz gözlerin nerde...

e-1-1-0-1--5-3-1--1-1-1-5-3-1-0---------------------------------------------
B-------------------------------------------------------------------------
G--------------------------------------------------------------------------
D--------------------------------------------------------------------------
A--------------------------------------------------------------------------
E--------------------------------------------------------------------------
Hani sen hep benimdin...Şimdi nerdesin nerde..!

Kolpa'ın Diğer Şarkıları için Tıklayınız..
Geri
  • Yorumlar: 0
  • Görüntülenme: 5411
Değerli ziyaretçimiz, sitemize üye iseniz lütfen giriş yapınız.
Üye değilseniz üye olmak için tıklayın.


Yorum Ekle

İsim:*
E-Mail:*
Kalın İtalik Altı Çizili Üzeri Çizili | Sola Yasla Ortala Sağa Yasla | İfade Ekle Bağlantı EkleKorumalı Link Girin Renk Seç | Gizli Metin Alıntı Ekle Farklı Bir Alfabe ile Yazılmış Olan Seçili Metni Kiril Alfabesine Çevir Spoiler Ekle
Güvenlik Kodundaki 2 Kelimeyi Giriniz: *