Çevrimiçi Yerli Akorcu :)


Anket
Yerli Akor Sakinleri Hangi Burçtan ?
Koç
Boğa
İkizler
Yengeç
Aslan
Başak
Terazi
Akrep
Yay
Oğlak
Kova
Balık
SANATÇILAR..
Popüler Konular
Seçmece Akorlar
Kategori: Ahmet Kaya
En iyi Ahmet Kaya Gitar Tabları


En iyi Ahmet Kaya Gitar Tabları

Ünlü besteci ve söz yazarı Ahmet Kaya'nın şarkılarını gitarlarımız ile solo şeklinde çalabilmek adına tablolar halinde tablarıen beğenilen şarkılarına göre sizler için araştırdık. Burada şarkılara çalışırken tabdaki her notaya basar iken şarkı sözleri ile ahenk oluşturmanıza dikkat edilmesi gerekmektedir. iyi çalışmalar...

AHMET KAYA - KENDİNE İYİ BAK

e--3-3-3-1-0-1-3-0-1-1-1-3-1-0---------------------
B------------------------------3-------------------
G--------------------------------------------------
D--------------------------------------------------
A--------------------------------------------------
E--------------------------------------------------
Suya hasret çöllerde beyaz güller biter mi
e--3-3-3-1-0-1-3-0-1-------------------------------
B--------------------------------------------------
G--------------------------------------------------
D--------------------------------------------------
A--------------------------------------------------
E--------------------------------------------------
Dikenleri göğü deler mi
e--3-3-3-1-0-1-3-5-1-1-0---1-0--0-0-0--------0-1---
B------------------------3-----------3-2-3-------3-
G--------------------------------------------------
D--------------------------------------------------
A--------------------------------------------------
E--------------------------------------------------
Bir menekşe kokusunda seni aramak var ya
Bu hep böyle böyle gider mi.

=================================================================================================================================

AHMET KAYA - KUM GİBİ

e------------------------------------
B-3--3--3--3--5--6--6--5--6--5--3--2-
acımasız olma şimdi bu kadar
e------------------------------------------
B-5--3--2----5--3--2----6--5--3--2---------
G-------------------------------------3----
Dün gibi dün gibi ezip geçme
e-----------------------------------------
B-----------------------------------------
G-3--3--3--3--6--7--7--7--6--7--6--3------
Bırak ta sarılayım ayaklarına
e-----------------------------------------
B-----------------------------------------
G-7--6--3-----7--6--3---9--7--6--3--2-----
Kum gibi kum gibi ezip geçme

=====================================================================================================================================

AHMET KAYA - SÖYLE

E|---1----------0--1--3--|--0-----3--------------0--1------ 
B|-------3--3-------------|-----3------3--1--3-------------
G|-------------------------|-------------------------------
D|-------------------------|-------------------------------
A|-------------------------|-------------------------------
E|-------------------------|-------------------------------

Söyle yağmur çamur / değmedi yüreğime

E|--------------------0-----|--------0--0-------------------
B|--3--0--0--0--1--3----1--|--1--3--------------------------
G|----------------------------|-----------------------------
D|----------------------------|-----------------------------
A|----------------------------|-----------------------------
E|-----------------------------|----------------------------

Şimdi ben nerdeyim / sen nerde

E|--1------------0--1--3--|--0--0-----------0--1------------
B|-----3--3--3-------------|------3-1-1-3-------------------
G|--------------------------|-------------------------------
D|--------------------------|-------------------------------
A|--------------------------|-------------------------------
E|---------------------------|------------------------------

Söyle ay doğmadan / düşmesi yaş gözüme

E|----------------------0-|---------------------------------
B|--3--0--0--0--1--3-----|-1--0-----------------------------
G|-------------------------|---------2--2-------------------
D|-------------------------|--------------------------------
A|-------------------------|--------------------------------
E|-------------------------|--------------------------------

Şimdi ben nerdeyim / sende nerde

=====================================================================================================================================

AHMET KAYA - ŞAFAK TÜRKÜSÜ

e|-5-7-8-7-5-8-7-5---7-5------------5----------7-7-7-5-----|
B|-----------------8-----8-6-5-6~6----8-6-5-5~-------------|
G|---------------------------------------------------------|
D|---------------------------------------------------------|
e|-5-5-7-8-7-5-8-7-5---7-5------------5--------------------|
B|-------------------8-----8-6-5-6~6----8-6-5-5--5-5-5~----|
G|---------------------------------------------------------|
D|---------------------------------------------------------|

=====================================================================================================================================
Geri
  • Yorumlar: 0
  • Görüntülenme: 34043
Değerli ziyaretçimiz, sitemize üye iseniz lütfen giriş yapınız.
Üye değilseniz üye olmak için tıklayın.


Yorum Ekle

İsim:*
E-Mail:*
Kalın İtalik Altı Çizili Üzeri Çizili | Sola Yasla Ortala Sağa Yasla | İfade Ekle Bağlantı EkleKorumalı Link Girin Renk Seç | Gizli Metin Alıntı Ekle Farklı Bir Alfabe ile Yazılmış Olan Seçili Metni Kiril Alfabesine Çevir Spoiler Ekle
Güvenlik Kodundaki 2 Kelimeyi Giriniz: *