Çevrimiçi Yerli Akorcu :)


Anket
Yerli Akor Sakinleri Hangi Burçtan ?
Koç
Boğa
İkizler
Yengeç
Aslan
Başak
Terazi
Akrep
Yay
Oğlak
Kova
Balık
SANATÇILAR..
Popüler Konular
Seçmece Akorlar
Kategori: Duman
En iyi Duman Gitar Tabları

En iyi Duman Gitar Tabları

Duman grubunun kendine ait olan üslubunun parçalarda çokca solo olarak çalındığı gözükmektedir. Parçalarının bir çok bölümünde ritim ile çalınmadığı için sitemiz adına Duman'ın en iyi parçalarının gitar tablarını sizler için hazırladık. iyi çalışmalar...


Duman - Aman aman

    F#m                              E                                  
E||--------------------------------|------------------------------
B||----------2-2--2--3--2h3p2------|----------0-------------------
G||--------2------------------4----|--------1---4--4--6--4h6p4-2--
D||------4-------------------------|------2-----------------------
A||----4---------------------------|----2-------------------------
E||--2-----------------------------|--0---------------------------
F#m E
|--------------------------------|--------------------------------|
|----------2-2--2--3--2h3p2------|--------------------------------|
|--------2------------------4----|--------1--1-1-1-1--2--1h2p1----|
|------4-------------------------|------2----------------------4--|
|----4---------------------------|----2---------------------------|
|--2-----------------------------|--0-----------------------------|
F#m E
--------------------------------|------------0------------------|
----------2-2--2--3--2h3p2------|----------0---5--5--7--5h7p5-2-|
--------2------------------4----|--------1----------------------|
------4-------------------------|------2------------------------|
----4---------------------------|----2--------------------------|
--2-----------------------------|--0----------------------------|
F#m E
--------------------------------|--------------------------------||
----------2-2--2--3--2h3p2------|--------------------------------||
--------2------------------4----|--------1--1-1-1-1--2--1h2p1----||
------4-------------------------|------2----------------------4--||
----4---------------------------|----2---------------------------||
--2-----------------------------|--0-----------------------------||

=========================================================================================================================================

Duman - Belki Alışmam Lazım

E||--------------------------------------------------------------------------------------------------------|
B||-10-10-8-8-7-7-5----------------------------------------10-12-10-12-------------------------------------|
G||-----------------------7-7-5-5-4-4-2-2-------------9-9-------------11/12-12--9-9------7-7-5-5-4-4-2-2---|
D||--------------------------------------------------------------------------------------------------------|
A||--------------------------------------------------------------------------------------------------------|
E||--------------------------------------------------------------------------------------------------------|

E||----8-8-8-8-8-8-----------------------------------------------------------------------------------------|
B||----------------9-9-9-----------------------------------------------------------------------------------|
G||--------------------------------------------------------------------------------------------------------|
D||--------------------------------------------------------------------------------------------------------|
A||--------------------------------------------------------------------------------------------------------|
E||--------------------------------------------------------------------------------------------------------|

=========================================================================================================================================

Duman -Bu Akşam

A I---0----3--2-3--2-0-----2-3--2-3---------
E I----2-0--0-----0-----2-0----0-----0-0----

2x
A I--0-----3--2-3--2-0----3-2-0-3-2--0-0--
E I----2-0--0-----0-----------------------------
Kendime geldim...

E I---7-7-7\---3-3-3\---5-5-5\---0-0-0------
B I----9-9-9\---5-5-5\---7-7-7\---2-2-2-----
G I-----9-9-9\---5-5-5\---7-7-7\---2-2-2----

E I---7-7-7\---3-3-3\---5-5-5\----------------
B I----9-9-9\---5-5-5\---7-7-7\---------------
G I-----9-9-9\---5-5-5\---7-7-7\--------------

Solo - 2
A I---0----3--2-3--2-0-----2-3--2-3---------
E I----2-0--0-----0-----2-0----0-----0-0----

2x
A I--0-----3--2-3--2-0----3-2-0-3-2--0-0-0-
E I----2-0--0-----0------------------------------

A I-------------------------------------------------
E I---5-4-5-4-5-4-5-4---5\7-7-----------------

A I-------------------------------------------------
E I--4-5-4-5-4-5-4-5---5\10-10---9-7-7----

A I-------------------------------------------------
E I--4-5-4-5-4-5-4-5-4-5-4-5-4\2-2--------

A I-------2-3--2-0 0-----------------------------
E I--2-0-----0------------------------------------

=========================================================================================================================================

Duman - Dibine Kadar

E|--2-0-2-0-2-0-2-0--2--0-2-0-2-0-2-3--7-5-3-5--7-5-3-5--7-5-3-5-2-3-2--|
B|----------------------------------------------------------------------|
G|----------------------------------------------------------------------|
D|----------------------------------------------------------------------|
A|----------------------------------------------------------------------|
E|----------------------------------------------------------------------|

E|----------------------------------------------------------------------|
B|-----------------------------3----3---------------------------------------|
G|------0-2-4------0-2-4--4-4--4-4--------0-2-------0-2--0-4-0-2--------|
D|--2-4--------2-4--------------------0-2-4-----0-2-4------------4-4-------|
A|----------------------------------------------------------------------|
E|----------------------------------------------------------------------|

E|--12-10--10---12-10--10------10------10-------------------------------|
B|--------12--12------12--12--12--12--12--12-----------------------------|
G|----------------------------------------------------------------------|
D|----------------------------------------------------------------------|
A|----------------------------------------------------------------------|
E|----------------------------------------------------------------------|

E|----------------------------------------------------------------------|
B|----------------------------------------------------------------------|
G|--------0-2-------0-2--0-4-0-2-----------------------------------------|
D|--0-2-4-----0-2-4------------4-4--2-------------------------------------|
A|----------------------------------------------------------------------|
E|----------------------------------------------------------------------|

=========================================================================================================================================

Duman - Elleri Ellerime

D|12-12-12-10-10-10-10-9-9-9-9-7-7-7-7-5-5-5-5-4-4-4-4-5-5-5-5-7-7-7-7
D|12-12-12-10-10-10-10-9-9-9-9-7-7-7-7-5-5-5-9-9-7-7-5-5-4
D|12-12-12-10-10-10-10-9-9-9-9-7-7-7-7-5-5-5-5-4-4-4-4-5-5-5-5-7-7-7-7
D|--6---7---8---9-9-12-9
A|5---5---5---5---------
G|--------------------------------------0-2---0-2-0---0
D|10-12---9-10---7-9---5-7-5-4----0-2-4-------------4--
G|-----------------------------2-0----------
D|10-12---9-10---7-9---5-7-5-4-----4-2------
A|-------------------------------------3-2-0
E|10-9-8-7-8-----7-5--------------------------------------
B|-------------------8-7-5--------------------------------
G|-----------7-6-----------7-6-5-7-6-5------------5-6-7-9-
D|-------------------------------------7-5------7---------
A|-----------------------------------------5--7-----------
E|----------------------12-12
B|--9---10---11---12-12------
G|9---9----9----9------------

=========================================================================================================================================

Duman -Gönül

e---------------------------------------
B---------------------------------------
G-------2-4-4s5-2-4~--------------------
D-2-4-5--------------2-4-5-5p7-5p7-5~---
A---------------------------------------
E---------------------------------------

e---------------------------------------
B---------------------------------------
G-------2-4-4s5-2-4-5-4s7---------------
D-2-4-5-------------------7s9-5-4s2-----
A---------------------------------------
E---------------------------------------

e-------12-14b15r14b15r14p12--12-10-16b17-15--15-14--14-12--12-10---
B----15-------------------------------------------------------------
G-14----------------------------------------------------------------
D-------------------------------------------------------------------
A-------------------------------------------------------------------
E-------------------------------------------------------------------

e-14b15r14-14-12--12-10--10-8--12-10--10-8--8-7--10-8-7-7---
B-----------------------------------------------------------
G-----------------------------------------------------------
D-----------------------------------------------------------
A-----------------------------------------------------------
E-----------------------------------------------------------

e-----------------------------------------------------
B-17b18r17p15------------------15b17r15---------------
G-------------17p15p14------------------17p15p14------
D------------------------------------------------17---
A----------------------7b8r7s5------------------------
E-----------------------------------------------------

e-------------14----------------------
B-------------------------------------
G-------14b15-------------------------
D-16h17----------16p17s19b21r19s14----
A-------------------------------------
E-------------------------------------

=========================================================================================================================================

Duman - Gurbet

Giriş Kısmı Böyle 
E]--------------------------------------------------------------------|
B]--------------------------------------------------------------------|
G]--------------------------------------------------------------------|
D]--------------------------------------------------------------------|
A]---3----3-3-3-----3----3-3-3-----3----3-3-3-------------------------|
E]---1----1-1-1-----1----1-1-1-----1----1-1-1-------------------------|

Sözlerin Girdiği Kısım ;
E]--------------------------------------------------------------------|
B]--------------------------------------------------------------------|
G]--------------------------------------------------------------------| x2
D]--------------------------------------------------------------------|
A]---6----6-6-6-----5----5-5-5-----3----3-3-3-----3----3-3-3----------|
E]---4----4-4-4-----3----3-3-3-----1----1-1-1-----1----1-1-1----------|
Daha sonra şarkı böyle gidiyor :
E]------------------------------------------------------------------------|
B]------------------------------------------------------------------------|
G]------------------------------------------------------------------------|
D]------------------------------------------------------------------------|
A]---8----8-8-8-----6----6-6-6-----6----6-6-6-----3----3-3-3--------------|
E]---6----6-6-6-----4----4-4-4-----3----3-3-3-----1----1-1-1--------------|

=========================================================================================================================================

Duman - Halimiz Duman

     Gi-de-rek  Dağ-ı Du-va-rı aş-tık  Yar-dan  uzaaaak    a-lem-e  dal-dık
E-----------------------------------------------------------------------------
B-----------------------------------------------------------------------------
G---5--7--7----5--7--5--4--5--4--------5-7-----7---7(b)---5--4--5--4----------
D---------------------------------7-------------------------------------7-----
A-----------------------------------------------------------------------------
E-----------------------------------------------------------------------------
Dost de-di-ğin kal-bi-ni çal-mış halimiz du man ahhh
E-----------------------------------------------------------------------------
B-----------------------------------------------------------------------------
G--4-----5--5--5----4-------4------------5--5--5----4----7---4----------------
D------------------------7------7---5------------------------------7----------
A-----------------------------------------------------------------------------
E-----------------------------------------------------------------------------

=========================================================================================================================================

Duman - Helal Olsun

B)-8-7-8-10-7-3-2-3-5-2----------------------------------------------  intro
G)----------------------2-2-4-6-4-0-0--------------------------------
B)-8-7-8-10-7-3-2-3-5-2----------------------------------------------
G)----------------------2-2-4-6-4-6-4--------------------------------
A)-4-5-4-5-0-0-2-4-2-------------------------------------------------
köprü
helal olsun aşk olsun gözlerimde yaşlar doymadım dönülmüş deliye
E)-----------------------------8--------------------------------------------
B)8-8-7----8-8-7--------------8-8-8-8-7--------------------------------------
G)------7--------7-9-7-9-11-7----------7-9-11------------------------------
sabah olmuş gün doğmuş her yerimde karlar...

E)-----------------------------8--------------------------------------------
B)8-8-7----8-8-7--------------8-8-8-8-7--------------------------------------
G)------7--------7-9-7-9-11-7----------7-9-11------------------------------

=========================================================================================================================================

Duman - Herşeyi Yak

Beni yak kendini yak her şeyi yak
G:-2-2-2-2-0-2-3-5-7-3-2--|
Bir kıvılcım yeter ben hazırım bak
G:-2-2-2-2-0-2-3-5-7-3-2--|
İster öp okşa istersen öldür
G:-5-7-9-9-9-9-10-7-9-10--|
Aşk için ölmeli aşk o zaman aşk
G:-7-7-7-7-7-7-7-6-7-9-10-9--|
Aşk için ölmeli aşk o zaman aşk
G:-12-12-12-12-14-12-10-10-12-9-10-7--|
G:-7-7-7-9-5-5-5-0-3-3-0-2-2-2-0--|
A:-0-0-0-0-0-0-0-0-0-0-0-0-0-0-0--|
G:-7-7-7-9-5-5-5-0-3-3-0-2-2-2-0--|
A:-0-0-0-0-0-0-0-0-0-0-0-0-0-0-0--|
G:-7-7-7-9-5-5-5-0-3-3-0-2-2-2-0--|
A:-0-0-0-0-0-0-0-0-0-0-0-0-0-0-0-3-2-0-2-3-2-0--|
Seni içime çektim bir nefeste
G:-2-2-2-2-0-2-3-5-7-3-2--|
Yüreğim tutuklu göğsüm kafeste
G:-2-2-2-2-0-2-3-5-7-3-2--|
Yanacağız ikimizde ateşte
G:-5-7-9-9-9-9-10-9-7-9-10--|
Bir kıvılcım yeter hazırım bak
G:-7-7-7-7-7-7-6-7-9-10-9--|
Aşk için ölmeli aşk o zaman aşk
G:-12-12-12-12-14-12-10-10-12-9-10-7--|
G:-7-7-7-7-7-7-7-7-7-7-7-7-7--|
A:-0-0-0-0-0-0-0-0-0-0-0-0-0--|
Allahım allah ım ateşlere yürüyorum
G:-14-14-12-10-7-9-12-12-12-10-10-9-10-7--|
Allah ım acı ile aşk ile büyüyorum
G:-14-14-12-10-11-7-9-12-12-10-10-9-10-7--|
G:-7-7-7-9-5-5-5-0-3-3-0-2-2-2-0--|
A:-0-0-0-0-0-0-0-0-0-0-0-0-0-0-0--|
G:-7-7-7-9-5-5-5-0-3-3-0-2-2-2-0--|
A:-0-0-0-0-0-0-0-0-0-0-0-0-0-0-0--|
G:-7-7-7-9-5-5-5-0-3-3-0-2-2-2-0--|
A:-0-0-0-0-0-0-0-0-0-0-0-0-0-0-0-3-2-0-2-3-2-0--|
Beni yor hasretinle sevginle yor
G:-2-2-2-2-0-2-3-5-7-3-2--|
Sevgisizlik ayrılıktan daha zor
G:-2-2-2-2-0-2-3-5-7-3-2--|
Dilediğin kadar acıt canımı
G:-5-7-9-9-9-9-9-10-7-9-10--|
Yokluğunda varlığında yetmiyor
G:-7-7-7-7-7-7-7-7-6-7-9-10-9--|
Yokluğunda varlığında yetmiyor
G:-12-12-12-12-14-10-10-10-12-9-10-7--|
G:-7-7-7-9-5-5-5-0-3-3-0-2-2-2-0--|
A:-0-0-0-0-0-0-0-0-0-0-0-0-0-0-0--|
G:-7-7-7-9-5-5-5-0-3-3-0-2-2-2-0--|
A:-0-0-0-0-0-0-0-0-0-0-0-0-0-0-0--|
G:-7-7-7-9-5-5-5-0-3-3-0-2-2-2-0--|
A:-0-0-0-0-0-0-0-0-0-0-0-0-0-0-0-3-2-0-2-3-2-0--|

=========================================================================================================================================

Duman - Rüyanda Görsen inanma

E||-----------1---0------------------------------------------------------------------|
B||--2---3-----------3--2--2--3--2--0--0--2--0------------------------------------|
G||-----------------------------------------------------------------------------------|
D||-----------------------------------------------------------------------------------|
A||-----------------------------------------------------------------------------------|
E||-----------------------------------------------------------------------------------|

E||-----------0-----------------------------------------------------------------------|
B||---2--3------3--2--0--0--2--0--------0------------------------------------------|
G||---------------------------------2--2-----2---------------------------------------|
D||-----------------------------------------------------------------------------------|
A||-----------------------------------------------------------------------------------|
E||-----------------------------------------------------------------------------------|

E||----------------------------------------------------------------------------------------|
B||---------2------------------------------------------------------------------------------|
G||--0--2------4--2--0-------------------------------------------------------------------|
D||-----------------------4--4 / 11----12h14--11h12--9h11--7h9--7--5--4--44-4h5h4 -|
A||-------------------------------------------------------------------------------------- -|
E||----------------------------------------------------------------------------------------|

=========================================================================================================================================

Duman - Senden Daha Güzel

  E|---5--5--5--5---7--7--7--7------------------------------|
B|---5--5--5--5---7--7--7--7------------------------------|
G|---5--5--5--5---7--7--7--7------------------------------|
D|---5--5--5--5---7--7--7--7------------------------------|
A|---x--x--x--x---x--x--x--x------------------------------|
E|---x--x--x--x---x--x--x--x------------------------------|
SÖZLER İLE BERABER...
E|----------------------------------------------------------------|
B|---7-7-7-9-10-9(X)--12-10-9-10(X)-------------------------------|
G|----------------------------------------------------------------|
D|----------------------------------------------------------------|
A|----------------------------------------------------------------|
E|----------------------------------------------------------------|
SOLO 1.KISIM
E|----------------------------------------------------------------|
B|---7-5-7-5-3^(2KERE)-9-7-9-7-5^--11-9-11-9-7^-------------------|
G|----------------------------------------------------------------|
D|----------------------------------------------------------------|
A|----------------------------------------------------------------|
E|----------------------------------------------------------------|
SOLO 2.KISIM

=========================================================================================================================================

Duman - Seni Kendime Sakladım

 Intro:
E-----------------------------------------------------------------
B-0-6-6-6-6-5-5-6-8-9---------------------------------------------
G---------------------5-5-6-10-9-6-5-5-5-6-10-9-6-5---------------
D---------------------------------------------------6-6-6-8-6-5-6-
A-----------------------------------------------------------------
E-----------------------------------------------------------------

E-----------------------------------------------------------------
B-----------------------------------------------------------------
G-----------------------------------------------------------------
D-3-5-6-6-5-5-3---------------------------------------------------
A---------------10h3-3h10-----------------------------------------
E-----------------------------------------------------------------

=========================================================================================================================================
Geri
  • Yorumlar: 1
  • Görüntülenme: 8585
Değerli ziyaretçimiz, sitemize üye iseniz lütfen giriş yapınız.
Üye değilseniz üye olmak için tıklayın.

eray
#1
  • 11 Temmuz 2015 03:30
  • Kayıt Tarihi: --
  • ICQ:
  • Yorumları: 0
  • Konuları: 0
  • Durum:
keşke biraz daha uzun olsaymış :D

Yorum Ekle

İsim:*
E-Mail:*
Kalın İtalik Altı Çizili Üzeri Çizili | Sola Yasla Ortala Sağa Yasla | İfade Ekle Bağlantı EkleKorumalı Link Girin Renk Seç | Gizli Metin Alıntı Ekle Farklı Bir Alfabe ile Yazılmış Olan Seçili Metni Kiril Alfabesine Çevir Spoiler Ekle
Güvenlik Kodundaki 2 Kelimeyi Giriniz: *