Çevrimiçi Yerli Akorcu :)


Anket
Yerli Akor Sakinleri Hangi Burçtan ?
Koç
Boğa
İkizler
Yengeç
Aslan
Başak
Terazi
Akrep
Yay
Oğlak
Kova
Balık
SANATÇILAR..
Popüler Konular
Seçmece Akorlar
Kategori: kıraç
En iyi Kıraç Tabları
En iyi Kıraç Tabları
Pop rock dalında ülkemizde bir dönemi yeniden ayağa kalmasını sağlayan ve yüksek tirajlı şarkılarında milyonlarca hayran kitlesine sahip olan ünlü sanatçı Kıraç biliyoruz ki parçalarının arasında ritim değişikliklerinin olduğu gibi ara solo çalınan kısımları ve parçaya girişleri çalmak amacıyla ritimsel bütünlüğün olmadığı yerleri gösteren en çok tercih edilen parçaları için sizler için hazırladık.. iyi çalışmalar.....



 
Kıraç - Aliye


E||--------7--7---------|------10-8-7-8-7-5-7-5-3-5-3-1-|
B||------5--------------|-------------------------------|
G||---------------------|-------------------------------|
D||---------------------|-------------------------------|
A||---------------------|-------------------------------|
E||---------------------|-------------------------------|
--3-1-0--0-7--7---------|------10-8-7-8-7-5-7-5-3-5-3-1-|
------------------------|-------------------------------|
------------------------|-------------------------------|
------------------------|-------------------------------|
------------------------|-------------------------------|
------------------------|-------------------------------|
--3-1-0--0-5--5---------|------8-7-5-7-5-3-5-3-1-3-1-0-|
------------------------|------------------------------|
------------------------|------------------------------|
------------------------|------------------------------|
------------------------|------------------------------|
------------------------|------------------------------|
--1-0------3--3---1--5----|--3--1--0------------|--------------||
------3--3----------------|---------------------|--------------||
--------------------------|---------------------|--------------||
--------------------------|---------------------|--------------||
--------------------------|---------------------|--------------||
--------------------------|---------------------|--------------||

=====================================================================================

 
Kıraç - Beddua


E -------------------------------------------------------------------------------------------------
B -------------------------------------------------------------------------------------------------
G -------------------------------------------------------------------------------------------------
D -4-5-7-9---9-9-7-9---9-9-7-5---5-5-4-5---5-5-4-2---7-5-4---4-4-2-4---4-4-2-4---------------
A -4-5-7-9---9-9-7-9---9-9-7-5---5-5-4-5---5-5-4-2---7-5-4---4-4-2-4---4-4-2-4----------------
E -2-3-5-7---7-7-5-7---7-7-5-3---3-3-2-3---3-3-2-0---5-3-2---2-2-0-2---2-2-0-2-----------------


=====================================================================================


 
Kıraç - Bir istanbul Masalı


B --5--7-8--10-8-7--5--7-8-7-5-3--5--7--5--3--1--3--5
Oysa bir umuttu hep gönlü besleyen dayan yüreğim diyen.
B --3--5--7--8-7--5--3--5--7--5--3--1--3--5--3--1--3--1--0
Ama kapkara bilye her yanı sardı bende bir tek can kaldı.
B--0-1-0---0--1--3--5--3--1--3--0--1--3--1--0--1----0
G--------2----------------------------------------2
coşkun ırmaklardan tozlu yağmurlardan taşlı yollardan geçtim.
Yalan olmuşlardan nar kokulu yardan her şeyimden vazgeçtim.


=====================================================================================


 
Kıraç - Çayır Çimen geze geze


E-------0-1-3-1-0-1-3-1-0-1-3-1-0-------0-1-3-1-0-1-1-1-1--------------
B-3-1-3---------------------------3-1-3--------------------------------
E-3-3-3-3--3-1-5-3--1-1-1-1--1-0-3-1--0-0-0-0--0----1-0----3--3-3-1-1-1
B-------------------------------------------------3-----3--------------
E-3-3-3-3--3-1-5-3--1-1-1-1--1-0-3-1--0-0-0-0--0----1-0----3--3-3-1-1-1
B-------------------------------------------------3-----3--------------
NOT: Geçişleri olağanca hızlı yapalım..


=====================================================================================


 
Kıraç - Gidiyorum


e-------------------------------------
B-------------------------------------
G-7-10-8-7h8-7---7-10-10s8-7-8p7-5-7-5
D-------------------------------------
A-------------------------------------
E-------------------------------------
e----------------------------------
B----------------------------------
G-5-8-7-5h7-5---5-8-8s7-5-7p5-3-5-3
D----------------------------------
A----------------------------------
E----------------------------------
e------------------------------------------------
B------------------------------------------------
G-3-7-5-3h5-3----3-7-7s5-3-5p3-2-3-2---2-5-3-2-3-
D------------------------------------------------
A------------------------------------------------
E------------------------------------------------
1. Bitiş
e---------------------------|
B---------------------------|
G-3h5p3--5h7p5-7h8p7-8h10p8-|
D---------------------------|
A---------------------------|
E---------------------------|
2. Bitiş
e-----------------|
B-----------------|
G-3h5p3--2-3p2-0--|
D-----------------|
A-----------------|


=====================================================================================


 
Kıraç - Karahisar Kalesi

Ara solo
e------5-5~5-5-5~5--3-1-0—-5~~
b---3-3-------------------3--- x2
e---5--3-3-3~5-3-1-3-1-0----------2~----------------
b------------------------3--3-3-0------3-1---------- x2
g------------------------------------------3-2-3-2-2~~

e------5-5~5-5-5~5--3-1-0—-5~~
b---3-3--------------------3--- x2
karahisar kalesi yıkılır gelir..
e---5--3-3-3~5-3-1-3-1-0---------2~-----------------
b------------------------3--3-3-0----3-1------------ x2
g----------------------------------------3-2-3-2-2~~
kahkülü boynuna dokulur gelır dökülür gelir
e-5--3-3-3~5-3-1-3-1-0-----0--5~~
b-----------------------3-3--1--
yayladan gel allı gelin yayladan
e-5--3-3-3~5-3-1-3-1-0------0---------------
b----------------------3-3-3--1-3-1----------
g----------------------------------3-2-3-2-2~~
kesme ümidini kadir mevladan kadir mevladan
e-5--3-3-3~5-3-1-3-1-0------0---------------
b----------------------3-3-3--1-3-1----------
g----------------------------------3-2-3-2-2~~
ver elini karlı daglar aşalım bayramlaşalım


=====================================================================================


 
Kıraç - Oysa Bir Umuttu


E--0-2-3-5-3-2-0-2-3-2-0--0-2-0-----0---
B-----------------------3------3-1-3----
E---0-2-3-2-0--0-2-0-----0--------------
G--3---------3-------3-1-3-3-1-3-1-0----


=====================================================================================


 
Kıraç - Razıysan Gel


İntro: Bm - Am - Em - D - C - Bm
E----------------------------------7--8--7---
B----------------7--8--7---7-8--10-----------
G----------7--9----------9-------------------
D--9--10-------------------------------------
A--------------------------------------------
E--------------------------------------------

E---------------------------------------------
B--8-10-8-7---7-8-7----------7----------------
G-----------9--------9--7--9---9--7----7------
D-----------------------------------10---9----
A---------------------------------------------
E---------------------------------------------


=====================================================================================


 
Kıraç - Talihim yok Bahtım kara


e----7-7-7-I-7----8-7-7------------I------------------7--------
b-10-------I---10-------10-10-8-10-I-8-10-10-10-10--8---10-----
g----------I-----------------------I--------------------------
d----------I-----------------------I--------------------------
a----------I-----------------------I--------------------------
E----------I-----------------------I--------------------------

e------------I-------------I-------------------------I--------------
b-10-8-8-7-8-I-7-8-8-8-8-7-I-10-8-8-7-7---7-----7-7--I---7----------
g------------I-------------I-------------9--7-9------I-9---9-7-9----
d------------I-------------I-------------------------I--------------
a------------I-------------I-------------------------I--------------
E------------I-------------I-------------------------I--------------


=====================================================================================


 
Kıraç - Yıllar sonra


E-1/7--8-7-8-7-8-7-8-(b)-7-8-I-5-7-5-7-5-7-5-7-(b)-5-7-I
B----------------------------I-------------------------I
G----------------------------I-------------------------I
E-3-3-5-3-5-3-5-3-5-(b)-5-7--I----1-3-1-3-1-3-1-0------I
B----------------------------I-------------------------I
G----------------------------I-------------------------I
1/7 : birden yediye kaydir
(b) : bekle


=====================================================================================


 
Kıraç - Zaman
E:--------------5---------|---------------------------|
A:--7-8-8-8-8-7---8-7-7---|--5-7-7-7-7-5-8-7-5-5------|
D:------------------------|---------------------------|
G:------------------------|---------------------------|
B:------------------------|---------------------------|
E:------------------------|---------------------------|

E:------------------------|---------------------------|
A:----5-5-5-5---7-5-------|------5--------------------|
D:--7---------7-----7-7---|--5-5---7-5-5-4------------|
G:------------------------|---------------------------|
B:------------------------|---------------------------|
E:------------------------|---------------------------|

E:----------------------------------|
A:------------5---------------------|
D:--4-5-7-5-5---7-5-5-4--7-5-4-4----|
G:----------------------------------|
B:----------------------------------|
E:----------------------------------|
Geri
  • Yorumlar: 0
  • Görüntülenme: 4734
Değerli ziyaretçimiz, sitemize üye iseniz lütfen giriş yapınız.
Üye değilseniz üye olmak için tıklayın.


Yorum Ekle

İsim:*
E-Mail:*
Kalın İtalik Altı Çizili Üzeri Çizili | Sola Yasla Ortala Sağa Yasla | İfade Ekle Bağlantı EkleKorumalı Link Girin Renk Seç | Gizli Metin Alıntı Ekle Farklı Bir Alfabe ile Yazılmış Olan Seçili Metni Kiril Alfabesine Çevir Spoiler Ekle
Güvenlik Kodundaki 2 Kelimeyi Giriniz: *